~ BLIZZARD ~

TABLATURAS ~ By Fefe - Tron544

 
 

Intro:

GUITAR (Rhythm):

e|-----------------------------------------------------|
B|-----------------------------------------------------|
G|-----------------------------------------------------|
D|--6--6--6-#-6-4-6--6--6-#-6-4-6--6--6-#-6-4-6--------|
A|--6--6--6-#-6-4-6--6--6-#-6-4-6--6--6-#-6-4-6--------|
E|--4--4--4-#-4-2-4--4--4-#-4-2-4--4--4-#-4-2-4--------|

BASS:

G|--------------------------------------------------------|
D|----------6-------------6-------------6-----------------|
A|--------------------------------------------------2--2--|
E|--4--4--4---4-2-4--4--4---4-2-4--4--4---4-2-4--4--------|

GUITAR (Rhythm):

e|-----------------------------------------------------|
B|-----------------------------------------------------|
G|-----------------------------------------------------|
D|--6--6--6-#-6-4-6--6--6-#-6-4-6--6--6-#-6-4-6--------|
A|--6--6--6-#-6-4-6--6--6-#-6-4-6--6--6-#-6-4-6--------|
E|--4--4--4-#-4-2-4--4--4-#-4-2-4--4--4-#-4-2-4--------|

BASS:

G|-----------------------------------------------------|
D|----------6-------------6-------------6--------------|
A|-----------------------------------------------------|
E|--4--4--4---4-2-4--4--4---4-2-4--4--4---4-2-4--------|

 


Verse/Estrofa:

GUITAR (Vocals):

e|-----------------------------------------------|
B|-----------------------------------------------|
G|-------4--4h6--3--3----------------------------|
D|--6------------------6-6----4-6---4-6----------|
A|---------------------------------------6-4--6--|
E|-----------------------------------------------|

GUITAR (Rhythm):

e|--------------------------------------------------------|
B|--------------------------------------------------------|
G|--------------------------------------------------4--4--|
D|--6--6--6-#-6-4-6--6--6-#-6-4-6--6--6-#-6-4-6--6--4--4--|
A|--6--6--6-#-6-4-6--6--6-#-6-4-6--6--6-#-6-4-6--6--2--2--|
E|--4--4--4-#-4-2-4--4--4-#-4-2-4--4--4-#-4-2-4--4--------|

BASS:

G|--------------------------------------------------------|
D|--------------------------------------------------------|
A|--------------------------------------------------2--2--|
E|--4--4--4-#-4-2-4--4--4-#-4-2-4--4--4-#-4-2-4--4--------|

GUITAR (Vocals):

e|------------------------------------------------|
B|------------------------------------------------|
G|--------4--4h6--3--3----------------------------|
D|--6--6----------------6-6----4-6---4-6----------|
A|----------------------------------------6-4--6--|
E|------------------------------------------------|

GUITAR (Rhythm):

e|--------------------------------------------------------|
B|--------------------------------------------------------|
G|--------------------------------------------------4--4--|
D|--6--6--6-#-6-4-6--6--6-#-6-4-6--6--6-#-6-4-6--6--4--4--|
A|--6--6--6-#-6-4-6--6--6-#-6-4-6--6--6-#-6-4-6--6--2--2--|
E|--4--4--4-#-4-2-4--4--4-#-4-2-4--4--4-#-4-2-4--4--------|

BASS:

G|--------------------------------------------------------|
D|--------------------------------------------------------|
A|--------------------------------------------------2--2--|
E|--4--4--4-#-4-2-4--4--4-#-4-2-4--4--4-#-4-2-4--4--------|

GUITAR (Vocals):

e|-----------------------------------------------------|
B|-----------------------------------------------------|
G|--------4----4------4-6-6/8--8--6-\-4----------------|
D|--4--6-----6---------------------------6------4-4-4--|
A|-----------------------------------------------------|
E|-----------------------------------------------------|

GUITAR (Rhythm):

e|----------------------------------------|
B|----------------------------------------|
G|----------------------------------------|
D|--6----------------6-------------4-4-4--|
A|--6----------------6-------------4-4-4--|
E|--4----------------4-------------2-2-2--|

GUITAR (Lead):

e|----------------------------------------------|
B|----4---4--4---4---4-----4---4--4---4---4-----|
G|----4---4--4---4---4-----4---4--4---4---4-----|
D|----------------------------------------------|
A|----------------------------------------------|
E|----------------------------------------------|

BASS:

G|-------------------------------------------|
D|-------------------------------------------|
A|----------------2-4-2---------------4-6-4--|
E|--4-------------------4--------------------|

GUITAR (Vocals):

e|--------------------------------------------------------------|
B|------------------------------------------4/7--9--------------|
G|-----------------------4-6-6/8--8--6-\-4----------8\6--4---4--|
D|--4h6--6--6--4-6-----------------------------------------6----|
A|--------------------------------------------------------------|
E|--------------------------------------------------------------|

GUITAR (Rhythm):

e|----------------------------------------|
B|----------------------------7--9--------|
G|----------------------------------6--8--|
D|--6----------------6--------4--6--------|
A|--6----------------6--------------4--6--|
E|--4----------------4--------------------|

GUITAR (Lead):

e|-----------------------------------------------|
B|----4---4--4---4---4-----4---4--4--4--4--4--4--|
G|----4---4--4---4---4-----4---4--4--4--4--4--4--|
D|-----------------------------------------------|
A|-----------------------------------------------|
E|-----------------------------------------------|

BASS:

G|--------------------------------------------|
D|--------------------------------4--6--------|
A|----------------2-4-2------2----------4--6--|
E|--4-------------------4---------------------|

 


Pre-Chorus/Pre-Estribillo:

GUITAR (Vocals):

e|-------------------------------------------------------------|
B|--7-7-7-6-6-6-6-5-5-5-5-4-4-3---7-7-7-6-6-6-6-5-5-5-5-4-4-3--|
G|-------------------------------------------------------------|
D|-------------------------------------------------------------|
A|-------------------------------------------------------------|
E|-------------------------------------------------------------|

GUITAR (Rhythm):

e|--------------------------------------------------------|
B|--------------------------------------------------------|
G|--------------------------------------------------4--4--|
D|--6--6--6-#-6-4-6--6--6-#-6-4-6--6--6-#-6-4-6--6--4--4--|
A|--6--6--6-#-6-4-6--6--6-#-6-4-6--6--6-#-6-4-6--6--2--2--|
E|--4--4--4-#-4-2-4--4--4-#-4-2-4--4--4-#-4-2-4--4--------|

BASS:

G|--------------------------------------------------------|
D|----------6-------------6-------------6-----------------|
A|--------------------------------------------------2--2--|
E|--4--4--4---4-2-4--4--4---4-2-4--4--4---4-2-4--4--------|

GUITAR (Vocals):

e|--------------------------------------------------------|
B|--7-7-7-6-6-6-6-5-5-5-5-4-4-3---------------------------|
G|--------------------------------------------------------|
D|-------------------------------4-6-4-6-4-6-4-6-4-6-4-6--|
A|--------------------------------------------------------|
E|--------------------------------------------------------|

GUITAR (Rhythm):

e|-----------------------------------------------------|
B|-----------------------------------------------------|
G|-----------------------------------------------------|
D|--6--6--6-#-6-4-6--6--6-#-6-4-6--6--6-#-6-4-6--------|
A|--6--6--6-#-6-4-6--6--6-#-6-4-6--6--6-#-6-4-6--------|
E|--4--4--4-#-4-2-4--4--4-#-4-2-4--4--4-#-4-2-4--------|

BASS:

G|-----------------------------------------------------|
D|----------6-------------6-------------6--------------|
A|-----------------------------------------------------|
E|--4--4--4---4-2-4--4--4---4-2-4--4--4---4-2-4--------|


Chorus/Estribillo:

GUITAR (Vocals):

e|-------|-----------------------------------------------------------|
B|--9-9--|--9--7--------------------9-9-9--7-------------------------|
G|-------|--------8--6-4-6--4-6/8-------------8--6-4-6--4-6/8--8--6--|
D|-------|-----------------------------------------------------------|
A|-------|-----------------------------------------------------------|
E|-------|-----------------------------------------------------------|

GUITAR (Rhythm):

e|-----------------------------------------------------------|
B|-----------------------------------------------------------|
G|------------------------------4--4-4--4-4-4-4--4-4--4-4-4--|
D|--6--6-6--6-6-6-6--6-6--6-6-6-4--4-4--4-4-4-4--4-4--4-4-4--|
A|--6--6-6--6-6-6-6--6-6--6-6-6-2--2-2--2-2-2-2--2-2--2-2-2--|
E|--4--4-4--4-4-4-4--4-4--4-4-4------------------------------|

BASS:

G|-------------------------------------------------------------------|
D|-------------------------------------------------------------------|
A|----------------------------------2-2-2-2-2-2-2-2-2-2-2-2-2-2-2-2--|
E|--4-4-4-4-4-4-4-4-4-4-4-4-4-4-4-4----------------------------------|

GUITAR (Vocals):

e|-------------------------------------------------|
B|--------------------------------------------9-9--|
G|---4-----------------4--6------------------------|
D|------6----4-6--6-6-------4/6--------------------|
A|-------------------------------------------------|
E|-------------------------------------------------|

GUITAR (Rhythm):

e|-----------------------------------------------------------|
B|-----------------------------------------------------------|
G|--6--6-6--6-6-6-6--6-6--6-6-6------------------------------|
D|--6--6-6--6-6-6-6--6-6--6-6-6-6--6-6--6-6-6-6--6-4--4-4-4--|
A|--4--4-4--4-4-4-4--4-4--4-4-4-6--6-6--6-6-6-6--6-4--4-4-4--|
E|------------------------------4--4-4--4-4-4-4--4-2--2-2-2--|

BASS:

G|-------------------------------------------------------------------|
D|-------------------------------------------------------------------|
A|--4-4-4-4-4-4-4-4-4-4-4-4-4-4-4-4----------------------------------|
E|----------------------------------4-4-4-4-4-4-4-4-4-4-4-2-2-2-2-2--|

GUITAR (Vocals):

e|-----------------------------------------------------------|
B|--9--7--------------------9-9-9--7-------------------------|
G|--------8--6-4-6--4-6/8-------------8--6-4-6--4-6/8--8--6--|
D|-----------------------------------------------------------|
A|-----------------------------------------------------------|
E|-----------------------------------------------------------|


GUITAR (Rhythm):

e|-----------------------------------------------------------|
B|-----------------------------------------------------------|
G|------------------------------4--4-4--4-4-4-4--4-4--4-4-4--|
D|--6--6-6--6-6-6-6--6-6--6-6-6-4--4-4--4-4-4-4--4-4--4-4-4--|
A|--6--6-6--6-6-6-6--6-6--6-6-6-2--2-2--2-2-2-2--2-2--2-2-2--|
E|--4--4-4--4-4-4-4--4-4--4-4-4------------------------------|

BASS:

G|-------------------------------------------------------------------|
D|-------------------------------------------------------------------|
A|----------------------------------2-2-2-2-2-2-2-2-2-2-2-2-2-2-2-2--|
E|--4-4-4-4-4-4-4-4-4-4-4-4-4-4-4-4----------------------------------|

GUITAR (Vocals):

e|-----------------------------------------------------|
B|-----------------------------------------------------|
G|---4-----------------4--6----------------------------|
D|------6----4-6--6-6-------4/6--------------6--8-8/9--|
A|-----------------------------------------9-----------|
E|-----------------------------------------------------|

GUITAR (Rhythm):

e|--------------------------------------------------|
B|--------------------------------------------------|
G|--6--6-6--6-6-6-6--6-6--6-6-6---------------------|
D|--6--6-6--6-6-6-6--6-6--6-6-6-6-------------------|
A|--4--4-4--4-4-4-4--4-4--4-4-4-6-------------------|
E|------------------------------4------------12\----|

BASS:

G|------------------------------------------------------|
D|------------------------------------------------------|
A|--4-4-4-4-4-4-4-4-4-4-4-4-4-4-4-4---------------------|
E|----------------------------------4------------12\----|

GUITAR (Vocals):

e|-----------------------------------------------------------------------------|
B|------------7-7/9------------------------------------------------7/9---------|
G|----6-6h8--------------------------------------------------------------------|
D|-----------------------6-8-8/9\8---6-8---6-8/9\8---6-8---6-6-----------------|
A|-----------------------------------------------------------------------------|
E|-----------------------------------------------------------------------------|

GUITAR (Rhythm):

e|-----------------------------------------------------------------------------------------|
B|-----------------------------------------------------------------------------------------|
G|-----------------------------------------------------------------------------------------|
D|--4----4--4-4--4-4--4--4-4-2----2--2-2--4-4--4--4-4-6--6--6--6--6-6-6-6-6-6-6-6-6-6-6-6--|
A|--4----4--4-4--4-4--4--4-4-2----2--2-2--4-4--4--4-4-6--6--6--6--6-6-6-6-6-6-6-6-6-6-6-6--|
E|--2----2--2-2--2-2--2--2-2-0----0--0-0--2-2--2--2-2-4--4--4--4--4-4-4-4-4-4-4-4-4-4-4-4--|

BASS:

G|-----------------------------------------------------------------------------------------|
D|-----------------------------------------------------------------------------------------|
A|-----------------------------------------------------------------------------------------|
E|--2----2--2-2--2-2--2--2-2-0----0--0-0--2-2--2--2-2-4--4--4--4--4-4-4-4-4-4-4-4-4-4-4-4--|


Bridge/Puente:

GUITAR (Lead):

e|--9/11------------------11----------------|
B|---------12-------------12----------------|
G|---------13-------------13----------------|
D|------------------------13----------------|
A|------------------------------------------|
E|------------------------------------------|

BASS:

G|------------------------------------|
D|------------------------------------|
A|------------------------------------|
E|--4----------------4----------------|

GUITAR (Lead):

e|--9h11-----------------9-----------------|
B|---------9-------------9-----------------|
G|---------9-------------9-----------------|
D|-----------------------11----------------|
A|-----------------------------------------|
E|-----------------------------------------|

BASS:

G|------------------------------------|
D|------------------------------------|
A|-------------------4----------------|
E|--0---------------------------------|

GUITAR (Vocals):

e|-------------------------------------------------------|
B|-------------------------------------------------------|
G|-------------------------------------------------------|
D|----4h6-6--6-6----6-4-6-4-6----6-4-6-4-6----6-4-6-4-6--|
A|-------------------------------------------------------|
E|-------------------------------------------------------|

GUITAR (Lead):

e|--9/11------------------11----------------|
B|---------12-------------12----------------|
G|---------13-------------13----------------|
D|------------------------13----------------|
A|------------------------------------------|
E|------------------------------------------|

BASS:

G|------------------------------------|
D|------------------------------------|
A|------------------------------------|
E|--4----------------4----------------|

GUITAR (Vocals):

e|---------------------------------------------------------|
B|---------------------------------------------------------|
G|---------------------------------------------------------|
D|----6-4-6-4-6----6-4-6-4-6----6-4-6-4-6-4-6-4-6-4-6-4-6--|
A|---------------------------------------------------------|
E|---------------------------------------------------------|

GUITAR (Lead):

e|--9h11-----------------9-----------------|
B|---------9-------------9-----------------|
G|---------9-------------9-----------------|
D|-----------------------11----------------|
A|-----------------------------------------|
E|-----------------------------------------|

BASS:

G|------------------------------------|
D|------------------------------------|
A|-------------------4----------------|
E|--0---------------------------------|

GUITAR (Vocals):

e|---------------------------------------------------------|
B|----9--11-9---7-4---7-4---7-7h9---7-7h9---7-7h9---7-7h9--|
G|---------------------------------------------------------|
D|---------------------------------------------------------|
A|---------------------------------------------------------|
E|---------------------------------------------------------|

GUITAR (Rhythm):

e|----------------------------------------------------------------------|
B|----------------------------------------------------------------------|
G|----------------------------------------------------------------------|
D|--(6)-x-x-x-x-x-x-x-x-x-x-x-x-x-x-x--x-x-x-x-x-x-x-x-x-x-x-x-x-x-x-x--|
A|--(6)-x-x-x-x-x-x-x-x-x-x-x-x-x-x-x--x-x-x-x-x-x-x-x-x-x-x-x-x-x-x-x--|
E|--(4)-x-x-x-x-x-x-x-x-x-x-x-x-x-x-x--x-x-x-x-x-x-x-x-x-x-x-x-x-x-x-x--|

GUITAR (Lead):

e|--9/11------------------11----------------|
B|---------12-------------12----------------|
G|---------13-------------13----------------|
D|------------------------13----------------|
A|------------------------------------------|
E|------------------------------------------|

BASS:

G|--------------------------------------------------------------------|
D|--------------------------------------------------------------------|
A|--------------------------------------------------------------------|
E|--4-4-4-4-4-4-4-4-4-4-4-4-4-4-4-4--4-4-4-4-4-4-4-4-4-4-4-4-4-4-4-4--|

GUITAR (Vocals):

e|------------------------------------------------------|
B|----9-7-9--9-7-9--9-7-9--7----9-7-9--9-7-9--9-7-9--7--|
G|------------------------------------------------------|
D|----6-4-6--6-4-6--6-4-6--4----6-4-6--6-4-6--6-4-6--4--|
A|------------------------------------------------------|
E|------------------------------------------------------|

GUITAR (Rhythm):

e|------------------------------------------------------------------------|
B|------------------------------------------------------------------------|
G|-------------------------------------(6)-x-x-x-x-x-x-x-x-x-x-x-x-x-x-x--|
D|--(2)-x-x-x-x-x-x-x-x-x-x-x-x-x-x-x--(6)-x-x-x-x-x-x-x-x-x-x-x-x-x-x-x--|
A|--(2)-x-x-x-x-x-x-x-x-x-x-x-x-x-x-x--(4)-x-x-x-x-x-x-x-x-x-x-x-x-x-x-x--|
E|--(0)-x-x-x-x-x-x-x-x-x-x-x-x-x-x-x-------------------------------------|

GUITAR (Lead):

e|--9h11-----------------9-----------------|
B|---------9-------------9-----------------|
G|---------9-------------9-----------------|
D|-----------------------11----------------|
A|-----------------------------------------|
E|-----------------------------------------|

BASS:

G|--------------------------------------------------------------------|
D|--------------------------------------------------------------------|
A|-----------------------------------4-4-4-4-4-4-4-4-4-4-4-4-4-4-4-4--|
E|--0-0-0-0-0-0-0-0-0-0-0-0-0-0-0-0-----------------------------------|

GUITAR (Vocals):

e|---------------------------------------------------------|
B|----9--11-9---7-4---7-4---7-7h9---7-7h9---7-7h9---7-7h9--|
G|---------------------------------------------------------|
D|---------------------------------------------------------|
A|---------------------------------------------------------|
E|---------------------------------------------------------|

GUITAR (Rhythm):

e|----------------------------------------------------------------------|
B|----------------------------------------------------------------------|
G|----------------------------------------------------------------------|
D|--(6)-x-x-x-x-x-x-x-x-x-x-x-x-x-x-x--x-x-x-x-x-x-x-x-x-x-x-x-x-x-x-x--|
A|--(6)-x-x-x-x-x-x-x-x-x-x-x-x-x-x-x--x-x-x-x-x-x-x-x-x-x-x-x-x-x-x-x--|
E|--(4)-x-x-x-x-x-x-x-x-x-x-x-x-x-x-x--x-x-x-x-x-x-x-x-x-x-x-x-x-x-x-x--|

GUITAR (Lead):

e|--9/11------------------11----------------|
B|---------12-------------12----------------|
G|---------13-------------13----------------|
D|------------------------13----------------|
A|------------------------------------------|
E|------------------------------------------|

BASS:

G|--------------------------------------------------------------------|
D|--------------------------------------------------------------------|
A|--------------------------------------------------------------------|
E|--4-4-4-4-4-4-4-4-4-4-4-4-4-4-4-4--4-4-4-4-4-4-4-4-4-4-4-4-4-4-4-4--|

GUITAR (Vocals):

e|------------------------------------------------------|
B|----9-7-9--9-7-9--9-7-9--7----9-7-9--9-7-9--9-7-9--7--|
G|------------------------------------------------------|
D|----6-4-6--6-4-6--6-4-6--4----6-4-6--6-4-6--6-4-6--4--|
A|------------------------------------------------------|
E|------------------------------------------------------|

GUITAR (Rhythm):

e|------------------------------------------------------------------------|
B|------------------------------------------------------------------------|
G|-------------------------------------(6)-x-x-x-x-x-x-x-x-x-x-x-x-x-x-x--|
D|--(2)-x-x-x-x-x-x-x-x-x-x-x-x-x-x-x--(6)-x-x-x-x-x-x-x-x-x-x-x-x-x-x-x--|
A|--(2)-x-x-x-x-x-x-x-x-x-x-x-x-x-x-x--(4)-x-x-x-x-x-x-x-x-x-x-x-x-x-x-x--|
E|--(0)-x-x-x-x-x-x-x-x-x-x-x-x-x-x-x-------------------------------------|

GUITAR (Lead):

e|--9h11-----------------9-----------------|
B|---------9-------------9-----------------|
G|---------9-------------9-----------------|
D|-----------------------11----------------|
A|-----------------------------------------|
E|-----------------------------------------|

BASS:

G|--------------------------------------------------------------------|
D|--------------------------------------------------------------------|
A|-----------------------------------4-4-4-4-4-4-4-4-4-4-4-4-4-4-4-4--|
E|--0-0-0-0-0-0-0-0-0-0-0-0-0-0-0-0-----------------------------------|

 


Chorus/Estribillo:

GUITAR (Vocals):

e|-------|-----------------------------------------------------------|
B|--9-9--|--9--7--------------------9-9-9--7-------------------------|
G|-------|--------8--6-4-6--4-6/8-------------8--6-4-6--4-6/8--8--6--|
D|-------|-----------------------------------------------------------|
A|-------|-----------------------------------------------------------|
E|-------|-----------------------------------------------------------|

GUITAR (Rhythm):

e|-----------------------------------------------------------|
B|-----------------------------------------------------------|
G|------------------------------4--4-4--4-4-4-4--4-4--4-4-4--|
D|--6--6-6--6-6-6-6--6-6--6-6-6-4--4-4--4-4-4-4--4-4--4-4-4--|
A|--6--6-6--6-6-6-6--6-6--6-6-6-2--2-2--2-2-2-2--2-2--2-2-2--|
E|--4--4-4--4-4-4-4--4-4--4-4-4------------------------------|

BASS:

G|-------------------------------------------------------------------|
D|-------------------------------------------------------------------|
A|----------------------------------2-2-2-2-2-2-2-2-2-2-2-2-2-2-2-2--|
E|--4-4-4-4-4-4-4-4-4-4-4-4-4-4-4-4----------------------------------|

GUITAR (Vocals):

e|-------------------------------------------------|
B|--------------------------------------------9-9--|
G|---4-----------------4--6------------------------|
D|------6----4-6--6-6-------4/6--------------------|
A|-------------------------------------------------|
E|-------------------------------------------------|

GUITAR (Rhythm):

e|-----------------------------------------------------------|
B|-----------------------------------------------------------|
G|--6--6-6--6-6-6-6--6-6--6-6-6------------------------------|
D|--6--6-6--6-6-6-6--6-6--6-6-6-6--6-6--6-6-6-6--6-4--4-4-4--|
A|--4--4-4--4-4-4-4--4-4--4-4-4-6--6-6--6-6-6-6--6-4--4-4-4--|
E|------------------------------4--4-4--4-4-4-4--4-2--2-2-2--|

BASS:

G|-------------------------------------------------------------------|
D|-------------------------------------------------------------------|
A|--4-4-4-4-4-4-4-4-4-4-4-4-4-4-4-4----------------------------------|
E|----------------------------------4-4-4-4-4-4-4-4-4-4-4-2-2-2-2-2--|

GUITAR (Vocals):

e|-----------------------------------------------------------|
B|--9--7--------------------9-9-9--7-------------------------|
G|--------8--6-4-6--4-6/8-------------8--6-4-6--4-6/8--8--6--|
D|-----------------------------------------------------------|
A|-----------------------------------------------------------|
E|-----------------------------------------------------------|


GUITAR (Rhythm):

e|-----------------------------------------------------------|
B|-----------------------------------------------------------|
G|------------------------------4--4-4--4-4-4-4--4-4--4-4-4--|
D|--6--6-6--6-6-6-6--6-6--6-6-6-4--4-4--4-4-4-4--4-4--4-4-4--|
A|--6--6-6--6-6-6-6--6-6--6-6-6-2--2-2--2-2-2-2--2-2--2-2-2--|
E|--4--4-4--4-4-4-4--4-4--4-4-4------------------------------|

BASS:

G|-------------------------------------------------------------------|
D|-------------------------------------------------------------------|
A|----------------------------------2-2-2-2-2-2-2-2-2-2-2-2-2-2-2-2--|
E|--4-4-4-4-4-4-4-4-4-4-4-4-4-4-4-4----------------------------------|

GUITAR (Vocals):

e|-----------------------------------------------------|
B|-----------------------------------------------------|
G|---4-----------------4--6----------------------------|
D|------6----4-6--6-6-------4/6--------------6--8-8/9--|
A|-----------------------------------------9-----------|
E|-----------------------------------------------------|

GUITAR (Rhythm):

e|--------------------------------------------------|
B|--------------------------------------------------|
G|--6--6-6--6-6-6-6--6-6--6-6-6---------------------|
D|--6--6-6--6-6-6-6--6-6--6-6-6-6-------------------|
A|--4--4-4--4-4-4-4--4-4--4-4-4-6-------------------|
E|------------------------------4------------12\----|

BASS:

G|------------------------------------------------------|
D|------------------------------------------------------|
A|--4-4-4-4-4-4-4-4-4-4-4-4-4-4-4-4---------------------|
E|----------------------------------4------------12\----|

GUITAR (Vocals):

e|-----------------------------------------------------------------------------|
B|------------7-7/9------------------------------------------------7/9---------|
G|----6-6h8--------------------------------------------------------------------|
D|-----------------------6-8-8/9\8---6-8---6-8/9\8---6-8---6-6-----------------|
A|-----------------------------------------------------------------------------|
E|-----------------------------------------------------------------------------|

GUITAR (Rhythm):

e|-----------------------------------------------------------------------------------------|
B|-----------------------------------------------------------------------------------------|
G|-----------------------------------------------------------------------------------------|
D|--4----4--4-4--4-4--4--4-4-2----2--2-2--4-4--4--4-4-6--6--6--6--6-6-6-6-6-6-6-6-6-6-6-6--|
A|--4----4--4-4--4-4--4--4-4-2----2--2-2--4-4--4--4-4-6--6--6--6--6-6-6-6-6-6-6-6-6-6-6-6--|
E|--2----2--2-2--2-2--2--2-2-0----0--0-0--2-2--2--2-2-4--4--4--4--4-4-4-4-4-4-4-4-4-4-4-4--|

BASS:

G|-----------------------------------------------------------------------------------------|
D|-----------------------------------------------------------------------------------------|
A|-----------------------------------------------------------------------------------------|
E|--2----2--2-2--2-2--2--2-2-0----0--0-0--2-2--2--2-2-4--4--4--4--4-4-4-4-4-4-4-4-4-4-4-4--|

 


Outro:

GUITAR (Vocals):

e|-------------------------------------------|
B|-------------------------------------------|
G|-------------------------------------------|
D|----6-8-8/9\8---6-8---6-8/9\8---6-8---6-6--|
A|-------------------------------------------|
E|-------------------------------------------|

 

Blizzard - Tron544
00:00 / 00:00

©2019 by Fefe - Tron544

Sigueme en:

  • YouTube - White Circle
  • Facebook - White Circle
  • Instagram - White Circle
  • Twitter - White Circle
This site was designed with the
.com
website builder. Create your website today.
Start Now