~ BLACK ROCK SHOOTER ~

TABLATURAS ~ By Fefe - Tron544

 

Intro:

 

GUITAR 2:

 

e|--------------------------------------------------|

B|--------------------------15--16--15--------------|

G|-------15---14------------------------17--15--15--|

D|--15-------------15---15--------------------------|

A|--------------------------------------------------|

E|--------------------------------------------------|

 

e|------------------------------------|

B|------------------------------------|

G|----------15--15---17-p-15--15--17--|

D|--15--15----------------------------|

A|------------------------------------|

E|------------------------------------|

 

GUITAR 1:

 

e|----------------------------------------------------------|

B|----------------------------------------------------------|

G|--7------8------10----3--#--#--5--#--#--7--#--#--8--#--#--|

D|--8------8------10----------------------------------------|

A|--5------6------8-----1--#--#--3--#--#--5--#--#--6--#--#--|

E|----------------------------------------------------------|

 

GUITAR 2:

 

e|--------------------------------------------------|

B|--------16----15-h-16-p-15----------------15--16--|

G|--15------------------------17----15--17----------|

D|--------------------------------------------------|

A|--------------------------------------------------|

E|--------------------------------------------------|

 

GUITAR 1:

 

e|-----------------------------------------------------------------|

B|-----------------------------------------------------------------|

G|--7------8------10--x--x--x--x--x--x--x--------------------------|

D|--8------8------10--x--x--x--x--x--x--x-----------------------8--|

A|--5------6------8---x--x--x--x--x--x--x--8--6--5--6--5--------8--|

E|--------------------------------------------------------8--5--6--|

 

GUITAR 2:

 

e|-----------------------------------------------------------------------|

B|--16-/-18----16----15-h-16-p-15--------18--16--15--16--15--------------|

G|---------------------------------17------------------------17--14--15--|

D|-----------------------------------------------------------------------|

A|-----------------------------------------------------------------------|

E|-----------------------------------------------------------------------|

 

 

Verse/Estrofa:

 

GUITAR 2:

 

e|-------------------------------------------------------------|

B|-------------------------------------------------------------|

G|--10--10------10-------------------------------------10--10--|

D|----------13------13--11--10--10---11--11-------13-----------|

A|--------------------------------------------13---------------|

E|-------------------------------------------------------------|

 

GUITAR 1:

 

e|--------------------------------|

B|--9-----------------------------|

G|--11-b----6--6--6--6------------|

D|----------6--6--6--6---6--6--6--|

A|----------4--4--4--4---6--6--6--|

E|-----------------------4--4--4--|

 

GUITAR 2:

 

e|-------------------------------------------------------------|

B|--------------------------------------------11--11-----------|

G|--10--10------10------10--10--10---13--13------------13--13--|

D|----------13------13-----------------------------------------|

A|-------------------------------------------------------------|

E|-------------------------------------------------------------|

 

GUITAR 1:

 

e|--------------------------------|

B|--------------------------------|

G|--3-------------6---------------|

D|--3------4------6------6--6--6--|

A|--1------4------4------6--6--6--|

E|---------2-------------4--4--4--|

 

GUITAR 2:

 

e|-----------------------------------------------------------|

B|-------11--11----------11----------------------------------|

G|--13-----------13--13-----------10--10----10---------------|

D|---------------------------13-----------------13---11--10--|

A|-----------------------------------------------------------|

E|-----------------------------------------------------------|

 

GUITAR 1:

 

e|---------------------------------------|

B|---------9-----------------------------|

G|--4------11-b----5--5--5--5------------|

D|--4--------------5--5--5--5---3--3--3--|

A|--2--------------3--3--3--3---3--3--3--|

E|------------------------------1--1--1--|

 

GUITAR 2:

 

e|----------------------------------------------------------------|

B|----------------------------------------------------------------|

G|-------10---------------10--10--13---12--10--10--9---9--10--10--|

D|--11-------11--10--11-------------------------------------------|

A|----------------------------------------------------------------|

E|----------------------------------------------------------------|

 

 

Pre-Chorus/Pre-Estrbillo:

 

GUITAR 1:

 

e|----------------------------------------------------------------------------------------------------------------|

B|----------------------------------------------------------------------------------------------------------------|

G|------------------------------------------------------(3)-x--x--x--x--x--x--x-----------------------------------|

D|--(4)-x--x--x--x--x--x--x---(6)-x--x--x--x--x--x--x---(3)-x--x--x--x--x--x--x---(3)-x---------------------------|

A|--(4)-x--x--x--x--x--x--x---(6)-x--x--x--x--x--x--x---(1)-x--x--x--x--x--x--x---(3)-x--(6)-(4)-(3)-(4)-(3)------|

E|--(2)-x--x--x--x--x--x--x---(4)-x--x--x--x--x--x--x-----------------------------(1)-x----------------------(4)--|

 

GUITAR 2:

 

e|------------------------------------------------|

B|------------------------------------------------|

G|------10----10--------------------------10------|

D|----------------13--11--10--10--11--13------10--|

A|--13--------------------------------------------|

E|------------------------------------------------|

 

GUITAR 1:

 

e|-------------------------------------------------------------------------------------------------|

B|-------------------------------------------------------------------------------------------------|

G|------------------------------------------------------3--#--3--#--3--3---------------------------|

D|--(4)-x--x--x--x--x--x--x---(6)-x--x--x--x--x--x--x---3--#--3--#--3--3---------------------------|

A|--(4)-x--x--x--x--x--x--x---(6)-x--x--x--x--x--x--x---1--#--1--#--1--1---4--3--4--3--4--3--------|

E|--(2)-x--x--x--x--x--x--x---(4)-x--x--x--x--x--x--x----------------------------------------6--4--|

 

GUITAR 2:

 

e|-------------------------------------------------------|

B|-------------------------------------------------------|

G|--------------10--10--10---10--10----------13--11--10--|

D|-----------------------------------13--11--------------|

A|--11--13--13-------------------------------------------|

E|-------------------------------------------------------|

 

GUITAR 1:

 

e|---------------------------------------------------------------------------------------------------------|

B|---------------------------------------------------------------------------------------------------------|

G|------------------------------------------------------(3)-x--x--x--x--x--x--x----------------------------|

D|--(4)-x--x--x--x--x--x--x---(6)-x--x--x--x--x--x--x---(3)-x--x--x--x--x--x--x---(3)-x--x--x--x--x--x--x--|

A|--(4)-x--x--x--x--x--x--x---(6)-x--x--x--x--x--x--x---(1)-x--x--x--x--x--x--x---(3)-x--x--x--x--x--x--x--|

E|--(2)-x--x--x--x--x--x--x---(4)-x--x--x--x--x--x--x-----------------------------(1)-x--x--x--x--x--x--x--|

 

GUITAR 2:

 

e|--------------------------------------------------------------------------------|

B|--------------------------------------------------------------------------------|

G|--------------10--10--10--10--10------10--13--10-------10--10-------------------|

D|----------------------------------13--------------13------------11--13--11--11--|

A|--11--13--13--------------------------------------------------------------------|

E|--------------------------------------------------------------------------------|

 

GUITAR 1:

 

e|-----------------------------------|

B|-----------------------------------|

G|--------------------------------7--|

D|--4------6------8--#--8--#--8---8--|

A|--4------6------8--#--8--#--8---5--|

E|--2------4------6--#--6--#--6------|

 

GUITAR 2:

 

e|---------------------------------|

B|---------------------------------|

G|------------------------13---10--|

D|--13--11--11--13--11-------------|

A|---------------------------------|

E|---------------------------------|

 

 

Chorus/Estribillo:

 

GUITAR 1:

 

e|---------------------------------------------------------------------------|

B|---------------------------------------------------------------------------|

G|--7--7--7--7---8--8--8--8---10--10--10--10---3--#--#--5--#--#--7--#--#--8--|

D|--8--8--8--8---8--8--8--8---10--10--10--10---------------------------------|

A|--5--5--5--5---6--6--6--6---8---8---8---8----1--#--#--3--#--#--5--#--#--6--|

E|---------------------------------------------------------------------------|

 

GUITAR 2:

 

e|--------------|--------------------------------------------------------|

B|--------------|--------------------------15--16--15--------------------|

G|--------------|-------15---14------------------------17--15--15--------|

D|--12--13--14--|--15-------------15---15----------------------------15--|

A|--------------|--------------------------------------------------------|

E|--------------|--------------------------------------------------------|

 

GUITAR 1:

 

e|-------------------------------------------------------------------------|

B|-------------------------------------------------------------------------|

G|--7--7--7--7---8--8--8--8---10--10--10--10---3--3---5--#--#--7--#--#--8--|

D|--8--8--8--8---8--8--8--8---10--10--10--10---3--3------------------------|

A|--5--5--5--5---6--6--6--6---8---8---8---8----1--1---3--#--#--5--#--#--6--|

E|-------------------------------------------------------------------------|

 

GUITAR 2:

 

e|-------------------------------------------------------------------|

B|----------------------------------------------15-------------------|

G|-------15--14-/-15----------17--15-/-17---17------17--15--14-/-15--|

D|--15----------------15--15-----------------------------------------|

A|-------------------------------------------------------------------|

E|-------------------------------------------------------------------|

 

GUITAR 1:

 

e|---------------------------------------------------------------------------|

B|---------------------------------------------------------------------------|

G|--7--7--7--7---8--8--8--8---10--10--10--10---3--#--#--5--#--#--7--#--#--8--|

D|--8--8--8--8---8--8--8--8---10--10--10--10---------------------------------|

A|--5--5--5--5---6--6--6--6---8---8---8---8----1--#--#--3--#--#--5--#--#--6--|

E|---------------------------------------------------------------------------|

 

GUITAR 2:

 

e|--------------------------------------------------------|

B|--------------------------15--16--15--------------------|

G|-------15---14------------------------17--15--15----13--|

D|--15-------------15---15--------------------------------|

A|--------------------------------------------------------|

E|--------------------------------------------------------|

 

GUITAR 1:

 

e|----------------------------------------------------------------|

B|----------------------------------------------9--6--------------|

G|-----------------------------------------8-b--------8--7--8--7--|

D|--4--4--4--4---6--6--6--6---8--8--8--8--------------------------|

A|--4--4--4--4---6--6--6--6---8--8--8--8--------------------------|

E|--2--2--4--2---4--4--4--4---6--6--6--6--------------------------|

 

GUITAR 2:

 

e|---------------------------------------------------------------|

B|---------------------------------------------------------------|

G|--15--15--15--15--15--15--13---13--13--13--13--13--15------13--|

D|---------------------------------------------------------------|

A|---------------------------------------------------------------|

E|---------------------------------------------------------------|

 

GUITAR 1:

 

e|----------------------------------------------------------------|

B|----------------------------------------------------------------|

G|----------------------------------------------------------------|

D|--4--4--4--4---6--6--6--6---8--#--8--#--8--#--8--8--8--5--6--8--|

A|--4--4--4--4---6--6--6--6---8--#--8--#--8--#--8--8--8--5--6--8--|

E|--2--2--4--2---4--4--4--4---6--#--6--#--6--#--6--6--6--3--4--6--|

 

GUITAR 2:

 

e|-------------------------------------------------------|

B|-------------------------------------------------------|

G|--15--15--15--15--15--15--13---13--13--13--13--13--15--|

D|-------------------------------------------------------|

A|-------------------------------------------------------|

E|-------------------------------------------------------|

Black Rock Shooter - Tron544
00:00 / 00:00

©2019 by Fefe - Tron544

Sigueme en:

  • YouTube - White Circle
  • Facebook - White Circle
  • Instagram - White Circle
  • Twitter - White Circle
This site was designed with the
.com
website builder. Create your website today.
Start Now