BLACK CATCHER

BLACK CLOVER

CHORDS ~ By Fefe (Tron544)

 

Chords used/Acordes utilizados:

A: 5.7.7.6.5.5
B: 7.9.9.8.7.7 or x.2.4.4.4.2  -  Bm: x.2.4.4.3.2
C#dim: x.4.5.6.5.x
D: x.5.7.7.7.5
Em: x.7.9.9.8.7
F#: 2.4.4.3.2.2  -  F#/A#: 6.9.8.6.7.6
G: 3.5.5.4.3.3
B8: x.2.x.4.x.x  -  C#8: x.4.x.6.x.x

D8: x.5.x.7.x.x  -  F#8: x.9.x.11.x.x

||: Em | G | A | D :||

 


Em          G
   Kaze ga senaka o hatte
A             B
   Shizuku wa ito o tsutatte
   Em        D
   GET UP me o samashite yo
   A            B
   GET DOWN mou mamonaku
   Em       G                 A
   Negai o moji ni okoshite chishio ni notte
     B                Em
   Sono mi ni matotta kuro
     D       A            B
   Kumori naku subete o furiharau you ni

 


| B8 C#8 | D8 F#8 |

 


   G            C#dim
   Kanaeyou yakusokudouri
   G            A
   Hibiwareta sekai de

 


         Bm
   LET'S DYE THIS WORLD
                  D
   EVEN I CAN NOT GRAB THIS SWORD
   A     F#/A#   G
   ALL I NEED IS GETTING STRONG
          F#
   WE CAN CATCH THE GAME
        Bm
   Makenai de yo
                   D
   Me ni utsutta subete o
   A   F#/A# G       A
   Hora mikata ni kaete... WE CAN CATCH THE GAME


   Bm               D     A   F#/A#
   Terashidasu yo souzoudouri
   G              F#
   Sono kage wa minai de... WE CAN CATCH THE GAME

 


||: Em | G | A | D :||
| Em ||

Black Catcher - Tron544
00:00 / 00:00
DONATE%20BUTTON%20(EN)_edited.png

TABS ~ By Fefe (Tron544)

 

Verse/Estrofa:

e|----------------------------------------------------------|
B|----------------------------------------------------------|
G|---------------7--7---------------9--9--------------------|
D|--------------------10-10-9--7----------9-10--10-9--7--9--|
A|----10--10--10--------------------------------------------|
E|----------------------------------------------------------|

e|------------------------------------------------|
B|------------------------------------------------|
G|--9--9----9-------------------------------------|
D|------------9---9-10--9-7--9-------9--7---------|
A|------------------------------7----------10-7---|
E|------------------------------------------------|

e|--------------10--10-8-8-7-----8--8-7-7-------7-7-7----------7-----|
B|--7---7h8-------------------10----------10--8-------10-10-8----10--|
G|------------9------------------------------------------------------|
D|-------------------------------------------------------------------|
A|-------------------------------------------------------------------|
E|-------------------------------------------------------------------|

e|--7--7/10-7---7--10-----------------------------------------|
B|-----------------------7---8---8-8-8-8-8-8/10--10-8-8-7-----|
G|---------------------------------------------------------9--|
D|------------------------------------------------------------|
A|------------------------------------------------------------|
E|------------------------------------------------------------|

 


Pre-Chorus/Pre-Estribillo:

e|---------------------------------------------------------|
B|---------------------------------------------------------|
G|--11/12--11--9--9h11----9----9----11----11/12----11------|
D|---------------------------------------------------------|
A|---------------------------------------------------------|
E|---------------------------------------------------------|

e|----------------------------------------------------------|
B|----------------------------------------------------------|
G|--12--12/14--12--11----9--------11/12------\11--11--------|
D|----------------------------12----------------------------|
A|----------------------------------------------------------|
E|----------------------------------------------------------|

 


Chorus/Estribillo:

e|--10/12----|--10--9-------10--10-9-9-----10/12--10--9----------------12/14--12--|
B|-----------|---------12--------------12----------------12--------10-------------|
G|-----------|-------------------------------------------------11-----------------|
D|-----------|--------------------------------------------------------------------|
A|-----------|--------------------------------------------------------------------|
E|-----------|--------------------------------------------------------------------|

e|--10--9----------------------------------------10/12----|
B|---------12----12----12---11----------------------------|
G|------------------------------11--9--11----11-----------|
D|--------------------------------------------------------|
A|--------------------------------------------------------|
E|--------------------------------------------------------|

e|--10--9-------10--10-9-9-----10/12--10--9----------------12/14--12--|
B|---------12--------------12----------------12--------10-------------|
G|-------------------------------------------------11-----------------|
D|--------------------------------------------------------------------|
A|--------------------------------------------------------------------|
E|--------------------------------------------------------------------|

e|--10----9---------------------------------------------------|
B|-------------12----14/15----14--------14-14--14--10--10/12--|
G|------------------------------------------------------------|
D|------------------------------------------------------------|
A|------------------------------------------------------------|
E|------------------------------------------------------------|

e|---------------------------------------------------------|
B|---------------------------------------------------------|
G|--11/12--11--9--9h11----9----9----11----11/12----11------|
D|---------------------------------------------------------|
A|---------------------------------------------------------|
E|---------------------------------------------------------|

e|------------------------------------------------------------------------|
B|--------------------------------------------------14-14--14--10--10/12--|
G|--12--12/14--12--11----9--------11/12--\11--11--------------------------|
D|----------------------------12------------------------------------------|
A|------------------------------------------------------------------------|
E|------------------------------------------------------------------------|

©2015 by Fefe - Tron544

Sigueme en:

  • YouTube - White Circle
  • Facebook - White Circle
  • Instagram - White Circle
  • Twitter - White Circle
This site was designed with the
.com
website builder. Create your website today.
Start Now