BENEATH THE MASK

PERSONA 5

TABS ~ By Fefe (Tron544)

 

Intro:

GUITAR (Rhythm):

e|---------------------------------------|
B|---3--------3--------3--------3--------|
G|---3--------3--------3--------3--------|
D|---5--------3--------5--------3--------|
A|---------------------------------------|
E|---------------------------------------|

GUITAR (Lead):

e|---10------10-----10------10-----10------10-----10------10------|
B|-------11-------------10-------------11-------------10----------|
G|----------------------------------------------------------------|
D|----------------------------------------------------------------|
A|----------------------------------------------------------------|
E|----------------------------------------------------------------|

BASS:

G|---------------------------------------------------|
D|---------------------------------------------------|
A|--3----1-1-----------5-----3----1-1----------5-----|
E|-------------3----3-----3------------1--3-------3--|

GUITAR (Rhythm):

e|---------------------------------------|
B|---3--------3--------3--------3--------|
G|---3--------3--------3--------3--------|
D|---5--------3--------5--------3--------|
A|---------------------------------------|
E|---------------------------------------|

GUITAR (Lead):

e|---10------10-----10------10-----10------10-----10------10------|
B|-------11-------------10-------------11-------------10----------|
G|----------------------------------------------------------------|
D|----------------------------------------------------------------|
A|----------------------------------------------------------------|
E|----------------------------------------------------------------|

BASS:

G|---------------------------------------------------|
D|---------------------------------------------------|
A|--3----1-3---------------3----1-1--------5---------|
E|-------------3-----3-1-3-----------1--3-----3------|

 


Part A/Parte A:

GUITAR (Vocals):

e|-----------|-------------------------------------------------------------------|
B|-----------|-------------------------------------------------------------------|
G|-----3--5--|--7-------3-5-7-8-7-------3-5-7-8-7-----3------3-3/5--\2------3-5--|
D|--5--------|--------5---------------5------------5-------5--------------5------|
A|-----------|-------------------------------------------------------------------|
E|-----------|-------------------------------------------------------------------|

GUITAR (Rhythm):

e|---------------------------------------|
B|---3--------3--------3--------3--------|
G|---3--------3--------3--------3--------|
D|---5--------3--------5--------3--------|
A|---------------------------------------|
E|---------------------------------------|

GUITAR (Lead):

e|---10------10-----10------10-----10------10-----10------10------|
B|-------11-------------10-------------11-------------10----------|
G|----------------------------------------------------------------|
D|----------------------------------------------------------------|
A|----------------------------------------------------------------|
E|----------------------------------------------------------------|

BASS:

G|---------------------------------------------------|
D|---------------------------------------------------|
A|--3----1-1-----------5-----3----1-1----------5-----|
E|-------------3----3-----3------------1--3-------3--|

GUITAR (Vocals):

e|---------------------------------------------------------------|
B|---------------------------------------------------------------|
G|--7-------3-5-7-8-7-------3-5-7-8-7-----3------3-3/5--\2-------|
D|--------5---------------5------------5-------5-----------------|
A|---------------------------------------------------------------|
E|---------------------------------------------------------------|

GUITAR (Rhythm):

e|---------------------------------------|
B|---3--------3--------3--------3--------|
G|---3--------3--------3--------3--------|
D|---5--------3--------5--------3--------|
A|---------------------------------------|
E|---------------------------------------|

GUITAR (Lead):

e|---10------10-----10------10-----10------10-----10------10------|
B|-------11-------------10-------------11-------------10----------|
G|----------------------------------------------------------------|
D|----------------------------------------------------------------|
A|----------------------------------------------------------------|
E|----------------------------------------------------------------|

BASS:

G|---------------------------------------------------|
D|---------------------------------------------------|
A|--3----1-3---------------3----1-1--------5---------|
E|-------------3-----3-1-3-----------1--3-----3------|

 


Part B/Parte B:

GUITAR (Vocals):

e|-------|----8-8-----------6-5------------------------------------------|
B|--8-6--|--8---------8-6-8--------------6-/-8----------------------8-6--|
G|-------|-------------------------7-5-7-------5-----3-5-7-8-7-----------|
D|-------|-----------------------------------------5---------------------|
A|-------|---------------------------------------------------------------|
E|-------|---------------------------------------------------------------|

GUITAR (Rhythm):

e|---------------------------------------|
B|---3--------3--------3--------3--------|
G|---3--------3--------3--------3--------|
D|---5--------3--------5--------3--------|
A|---------------------------------------|
E|---------------------------------------|

GUITAR (Lead):

e|---10------10-----10------10-----10------10-----10------10------|
B|-------11-------------10-------------11-------------10----------|
G|----------------------------------------------------------------|
D|----------------------------------------------------------------|
A|----------------------------------------------------------------|
E|----------------------------------------------------------------|

BASS:

G|---------------------------------------------------|
D|---------------------------------------------------|
A|--3----1-1-----------5-----3----1-1----------5-----|
E|-------------3----3-----3------------1--3-------3--|

GUITAR (Vocals):

e|----8-8-----------6-5--------------------------------------|
B|--8---------8-6-8--------------6-/-8-----------------------|
G|-------------------------7-5-7-------5-----3-3/5--\2-------|
D|-----------------------------------------5-----------------|
A|-----------------------------------------------------------|
E|-----------------------------------------------------------|

GUITAR (Rhythm):

e|---------------------------------------|
B|---3--------3--------3--------3--------|
G|---3--------3--------3--------3--------|
D|---5--------3--------5--------3--------|
A|---------------------------------------|
E|---------------------------------------|

GUITAR (Lead):

e|---10------10-----10------10-----10------10-----10------10------|
B|-------11-------------10-------------11-------------10----------|
G|----------------------------------------------------------------|
D|----------------------------------------------------------------|
A|----------------------------------------------------------------|
E|----------------------------------------------------------------|

BASS:

G|---------------------------------------------------|
D|---------------------------------------------------|
A|--3----1-3---------------3----1-1--------5---------|
E|-------------3-----3-1-3-----------1--3-----3------|

 


Re-Intro:

GUITAR (Lead):

e|---10------10-----10------10-----10------10-----10------10------|
B|-------11-------------10-------------11-------------10----------|
G|----------------------------------------------------------------|
D|----------------------------------------------------------------|
A|----------------------------------------------------------------|
E|----------------------------------------------------------------|

BASS:

G|---------------------------------------------------|
D|---------------------------------------------------|
A|--3----1-1-----------5-----3----1-1----------5-----|
E|-------------3----3-----3------------1--3-------3--|

GUITAR (Lead):

e|---10------10-----10------10-----10------10-----10------10------|
B|-------11-------------10-------------11-------------10----------|
G|----------------------------------------------------------------|
D|----------------------------------------------------------------|
A|----------------------------------------------------------------|
E|----------------------------------------------------------------|

BASS:

G|---------------------------------------------------|
D|---------------------------------------------------|
A|--3----1-3---------------3----1-1--------5---------|
E|-------------3-----3-1-3-----------1--3-----3------|

 


Part A'/Parte A':

GUITAR (Rhythm):

e|---------------------------------------|
B|---3--------3--------3--------3--------|
G|---3--------3--------3--------3--------|
D|---5--------3--------5--------3--------|
A|---------------------------------------|
E|---------------------------------------|

GUITAR (Vocals):

e|-----------|-------------------------------------------------------------------|
B|-----------|-------------------------------------------------------------------|
G|-----3--5--|--7-------3-5-7-8-7-------3-5-7-8-7-----3------3-3/5--\2------3-5--|
D|--5--------|--------5---------------5------------5-------5--------------5------|
A|-----------|-------------------------------------------------------------------|
E|-----------|-------------------------------------------------------------------|

GUITAR (Lead):

e|---10------10-----10------10-----10------10-----10------10------|
B|-------11-------------10-------------11-------------10----------|
G|----------------------------------------------------------------|
D|----------------------------------------------------------------|
A|----------------------------------------------------------------|
E|----------------------------------------------------------------|

BASS:

G|---------------------------------------------------|
D|---------------------------------------------------|
A|--3----1-1-----------5-----3----1-1----------5-----|
E|-------------3----3-----3------------1--3-------3--|

GUITAR (Vocals):

e|----------------------------------------------------------------------|
B|----------------------------------------------------------------------|
G|--5pb-r-5/7------3-5-7-8-7-------3-5-7-8-7-----3------3-3/5--\2-------|
D|---------------5---------------5------------5-------5-----------------|
A|----------------------------------------------------------------------|
E|----------------------------------------------------------------------|

GUITAR (Rhythm):

e|---------------------------------------|
B|---3--------3--------3--------3--------|
G|---3--------3--------3--------3--------|
D|---5--------3--------5--------3--------|
A|---------------------------------------|
E|---------------------------------------|

GUITAR (Lead):

e|---10------10-----10------10-----10------10-----10------10------|
B|-------11-------------10-------------11-------------10----------|
G|----------------------------------------------------------------|
D|----------------------------------------------------------------|
A|----------------------------------------------------------------|
E|----------------------------------------------------------------|

BASS:

G|---------------------------------------------------|
D|---------------------------------------------------|
A|--3----1-3---------------3----1-1--------5---------|
E|-------------3-----3-1-3-----------1--3-----3------|

Beneath the Mask (Instrumental) - Tron544
00:00 / 00:00
DONATE%20BUTTON%20(EN)_edited.png

Part B/Parte B:

GUITAR (Vocals):

e|-------|----8-8-----------6-5------------------------------------------|
B|--8-6--|--8---------8-6-8--------------6-/-8----------------------8-6--|
G|-------|-------------------------7-5-7-------5-----3-5-7-8-7-----------|
D|-------|-----------------------------------------5---------------------|
A|-------|---------------------------------------------------------------|
E|-------|---------------------------------------------------------------|

GUITAR (Rhythm):

e|---------------------------------------|
B|---3--------3--------3--------3--------|
G|---3--------3--------3--------3--------|
D|---5--------3--------5--------3--------|
A|---------------------------------------|
E|---------------------------------------|

GUITAR (Lead):

e|---10------10-----10------10-----10------10-----10------10------|
B|-------11-------------10-------------11-------------10----------|
G|----------------------------------------------------------------|
D|----------------------------------------------------------------|
A|----------------------------------------------------------------|
E|----------------------------------------------------------------|

BASS:

G|---------------------------------------------------|
D|---------------------------------------------------|
A|--3----1-1-----------5-----3----1-1----------5-----|
E|-------------3----3-----3------------1--3-------3--|

GUITAR (Vocals):

e|----8-8-----------6-5--------------------------------------|
B|--8---------8-6-8--------------6-/-8-----------------------|
G|-------------------------7-5-7-------5-----3-3/5--\2-------|
D|-----------------------------------------5-----------------|
A|-----------------------------------------------------------|
E|-----------------------------------------------------------|

GUITAR (Rhythm):

e|---------------------------------------|
B|---3--------3--------3--------3--------|
G|---3--------3--------3--------3--------|
D|---5--------3--------5--------3--------|
A|---------------------------------------|
E|---------------------------------------|

GUITAR (Lead):

e|---10------10-----10------10-----10------10-----10------10------|
B|-------11-------------10-------------11-------------10----------|
G|----------------------------------------------------------------|
D|----------------------------------------------------------------|
A|----------------------------------------------------------------|
E|----------------------------------------------------------------|

BASS:

G|---------------------------------------------------|
D|---------------------------------------------------|
A|--3----1-3---------------3----1-1--------5---------|
E|-------------3-----3-1-3-----------1--3-----3------|

 


Re-Intro:

GUITAR (Lead):

e|---10------10-----10------10-----10------10-----10------10------|
B|-------11-------------10-------------11-------------10----------|
G|----------------------------------------------------------------|
D|----------------------------------------------------------------|
A|----------------------------------------------------------------|
E|----------------------------------------------------------------|

BASS:

G|---------------------------------------------------|
D|---------------------------------------------------|
A|--3----1-1-----------5-----3----1-1----------5-----|
E|-------------3----3-----3------------1--3-------3--|

GUITAR (Lead):

e|---10------10-----10------10-----10------10-----10------10------|
B|-------11-------------10-------------11-------------10----------|
G|----------------------------------------------------------------|
D|----------------------------------------------------------------|
A|----------------------------------------------------------------|
E|----------------------------------------------------------------|

BASS:

G|---------------------------------------------------|
D|---------------------------------------------------|
A|--3----1-3---------------3----1-1--------5---------|
E|-------------3-----3-1-3-----------1--3-----3------|

 


Part C/Parte C:

GUITAR (Vocals):

e|------|-------------------------------------------------------------------------|
B|------|--8---------------11-10------8----8--------------------------------------|
G|--10--|-------------------------------10---------------------------------10-10--|
D|------|----8-10----10-12-------------------8-10-------8-10-12-13-12-------------|
A|------|--------------------------------------------10---------------------------|
E|------|-------------------------------------------------------------------------|

GUITAR (Lead):

e|---10------10-----10------10-----10------10-----10------10------|
B|-------11-------------10-------------11-------------10----------|
G|----------------------------------------------------------------|
D|----------------------------------------------------------------|
A|----------------------------------------------------------------|
E|----------------------------------------------------------------|

GUITAR (Vocals):

e|------------------------------------------------------------------|
B|-----------------------13-11-10---------8-------------------------|
G|--12-11-12----12-12-12--------------10----------------10-7--------|
D|------------------------------------------8-8----8-10-------------|
A|------------------------------------------------------------------|
E|------------------------------------------------------------------|

GUITAR (Lead):

e|---10------10-----10------10-----10------10-----10------10------|
B|-------11-------------10-------------11-------------10----------|
G|----------------------------------------------------------------|
D|----------------------------------------------------------------|
A|----------------------------------------------------------------|
E|----------------------------------------------------------------|

 


Part B/Parte B:

GUITAR (Vocals):

e|-------|----8-8-----------6-5------------------------------------------|
B|--8-6--|--8---------8-6-8--------------6-/-8----------------------8-6--|
G|-------|-------------------------7-5-7-------5-----3-5-7-8-7-----------|
D|-------|-----------------------------------------5---------------------|
A|-------|---------------------------------------------------------------|
E|-------|---------------------------------------------------------------|

GUITAR (Rhythm):

e|---------------------------------------|
B|---3--------3--------3--------3--------|
G|---3--------3--------3--------3--------|
D|---5--------3--------5--------3--------|
A|---------------------------------------|
E|---------------------------------------|

GUITAR (Lead):

e|---10------10-----10------10-----10------10-----10------10------|
B|-------11-------------10-------------11-------------10----------|
G|----------------------------------------------------------------|
D|----------------------------------------------------------------|
A|----------------------------------------------------------------|
E|----------------------------------------------------------------|

BASS:

G|---------------------------------------------------|
D|---------------------------------------------------|
A|--3----1-1-----------5-----3----1-1----------5-----|
E|-------------3----3-----3------------1--3-------3--|

GUITAR (Vocals):

e|----8-8-----------6-5--------------------------------------|
B|--8---------8-6-8--------------6-/-8-----------------------|
G|-------------------------7-5-7-------5-----3-3/5--\2-------|
D|-----------------------------------------5-----------------|
A|-----------------------------------------------------------|
E|-----------------------------------------------------------|

GUITAR (Rhythm):

e|---------------------------------------|
B|---3--------3--------3--------3--------|
G|---3--------3--------3--------3--------|
D|---5--------3--------5--------3--------|
A|---------------------------------------|
E|---------------------------------------|

GUITAR (Lead):

e|---10------10-----10------10-----10------10-----10------10------|
B|-------11-------------10-------------11-------------10----------|
G|----------------------------------------------------------------|
D|----------------------------------------------------------------|
A|----------------------------------------------------------------|
E|----------------------------------------------------------------|

BASS:

G|---------------------------------------------------|
D|---------------------------------------------------|
A|--3----1-3---------------3----1-1--------5---------|
E|-------------3-----3-1-3-----------1--3-----3------|

 


Outro: *FADE-OUT*

GUITAR (Lead):

e|---10------10-----10------10-----10------10-----10------10------|
B|-------11-------------10-------------11-------------10----------|
G|----------------------------------------------------------------|
D|----------------------------------------------------------------|
A|----------------------------------------------------------------|
E|----------------------------------------------------------------|

BASS:

G|---------------------------------------------------|
D|---------------------------------------------------|
A|--3----1-1-----------5-----3----1-1----------5-----|
E|-------------3----3-----3------------1--3-------3--|

GUITAR (Lead):

e|---10------10-----10------10-----10------10-----10------10------|
B|-------11-------------10-------------11-------------10----------|
G|----------------------------------------------------------------|
D|----------------------------------------------------------------|
A|----------------------------------------------------------------|
E|----------------------------------------------------------------|

BASS:

G|---------------------------------------------------|
D|---------------------------------------------------|
A|--3----1-3---------------3----1-1--------5---------|
E|-------------3-----3-1-3-----------1--3-----3------|

©2015 by Fefe - Tron544

Sigueme en:

  • YouTube - White Circle
  • Facebook - White Circle
  • Instagram - White Circle
  • Twitter - White Circle
This site was designed with the
.com
website builder. Create your website today.
Start Now