~ BE YOUR GIRL ~

ACORDES ~ By Fefe - Tron544

 

Chords used/Acordes utilizados:

 

Am: x02210
Bb: x13331  -  Bbm: x13321
C: 032010  or x35553
Dm: xx0231 or x57765
F: 133211

Gm: 355333  -  G7: 353463

 


Intro:

| F  C | Dm  Bb | x2

F              C          Dm    Bb
BABY, I WANNA BE YOUR GIRL
F            C         Dm     Bb
BABY, ALL I NEED IS YOU

 


Verse/Estrofa:

Dm       C    Am        Bb
Anna ni mou soba ni ite mo
Dm        C   Am      Bb
Konna ni mou aisarete mo
  Dm          C   Am        Bb
Jikan wa mikatashite kurezu ni

 


Pre-Chorus/Pre-Estribillo:

 Gm        Am        Bbm
Anata no kanojo ni narenai

 


Chorus/Estribillo:

        F         C    Dm        Bb
Atashi sore de mo itte nando mo omotta
Dm                 C         Bb         C
Anata o dareka to shea shite iru keredo
F         C       Dm        Bb
Sore ja iya datte nando mo naiteru
Dm                  C        Bb     Am
Uso de mo kiyasume de mo ne onegai

 


Outro:

  Bb              F
Atashi no naka wa anata dake
G7                Bb         
Aishite iru no wa atashi dake tte itte

 


Solo:

| F  C | Dm  Bb |
| Dm  C | Bb  C |

 

 

 

TABLATURAS ~ By Fefe - Tron544

 

Intro:

GUITAR (Rhythm):

e|-----------|--1--1--1--1-1--3--3--3--3-3--5--5--5--5-5--6--6-----------|
B|-----------|--1--1--1--1-1--5--5--5--5-5--6--6--6--6-6--6--6-----------|
G|-----------|--2--2--2--2-2--5--5--5--5-5--7--7--7--7-7--7--7-----------|
D|--8-7-8-7--|--3--3--3--3-3--5--5--5--5-5--7--7--7--7-7--8--8--8-7-8-7--|
A|-----------|--3--3--3--3-3--3--3--3--3-3--5--5--5--5-5--8--8-----------|
E|--6-5-6-5--|--1--1--1--1-1------------------------------6--6--6-5-6-5--|

GUITAR (Lead):

e|---------------|-----------------------------------------------|
B|--11-10-11-10--|--6----10--8------8--6--------6--11--10--8--6--|
G|---------------|-----------------------------------------------|
D|--8--7--8--7---|--3----7---5------5--3--------3--8---7---5--3--|
A|---------------|-----------------------------------------------|
E|---------------|-----------------------------------------------|

BASS:

G|----------------------------------------------------------|
D|----------------------------------------------------------|
A|----------------3--3--3-----5--5--5-3-5-3--1--1--1-0-1-0--|
E|--1--1--1--1-1-----------1--------------------------------|

GUITAR (Rhythm):

e|--1--1--1--1-1--3--3--3--3-3--5--5--5--5-5-------------------|
B|--1--1--1--1-1--5--5--5--5-5--6--6--6--6-6-------------------|
G|--2--2--2--2-2--5--5--5--5-5--7--7--7--7-7-------------------|
D|--3--3--3--3-3--5--5--5--5-5--7--7--7--7-7--8-7-8-7-8-7-8-7--|
A|--3--3--3--3-3--3--3--3--3-3--5--5--5--5-5-------------------|
E|--1--1--1--1-1------------------------------6-5-6-5-6-5-6-5--|

GUITAR (Lead):

e|--------------------------------------------------|
B|--6----10--8------8--6----------------------------|
G|------------------------------5/7--5--10--12--10--|
D|--3----7---5------5--3----------------------------|
A|------------------------------3/5--3--8---10--8---|
E|--------------------------------------------------|

BASS:

G|----------------------------------------------------------|
D|----------------------------------------------------------|
A|----------------3--3--3-----5--5--5-3-5-3--1--1--1-0-1-0--|
E|--1--1--1--1-1-----------1--------------------------------|

GUITAR (Vocals):

e|----------------------------------|
B|--11/13---------------------------|
G|---------10--10--12-10-9--10--10--|
D|----------------------------------|
A|----------------------------------|
E|----------------------------------|

GUITAR (Rhythm):

e|--1--1--1--1-1--3--3--3--3-3--5--5--5--5-5--6--6-----------|
B|--1--1--1--1-1--5--5--5--5-5--6--6--6--6-6--6--6-----------|
G|--2--2--2--2-2--5--5--5--5-5--7--7--7--7-7--7--7-----------|
D|--3--3--3--3-3--5--5--5--5-5--7--7--7--7-7--8--8--8-7-8-7--|
A|--3--3--3--3-3--3--3--3--3-3--5--5--5--5-5--8--8-----------|
E|--1--1--1--1-1------------------------------6--6--6-5-6-5--|

GUITAR (Lead):

e|------------------------------------------------|
B|--------10--8------8--6--------6--11--10--8--6--|
G|--10--------------------------------------------|
D|--------7---5------5--3--------3--8---7---5--3--|
A|--8---------------------------------------------|
E|------------------------------------------------|

BASS:

G|----------------------------------------------------------|
D|----------------------------------------------------------|
A|----------------3--3--3-----5--5--5-3-5-3--1--1--1-0-1-0--|
E|--1--1--1--1-1-----------1--------------------------------|

GUITAR (Vocals):

e|-------------------------------------|
B|--11/13----------------9/10----------|
G|---------10--10--12-10-------10--10--|
D|-------------------------------------|
A|-------------------------------------|
E|-------------------------------------|

GUITAR (Rhythm):

e|--1--1--1--1-1--3--3--3--3-3--5--5--5--5-5-------------------|
B|--1--1--1--1-1--5--5--5--5-5--6--6--6--6-6-------------------|
G|--2--2--2--2-2--5--5--5--5-5--7--7--7--7-7-------------------|
D|--3--3--3--3-3--5--5--5--5-5--7--7--7--7-7--8-7-8-7-8-7-8-7--|
A|--3--3--3--3-3--3--3--3--3-3--5--5--5--5-5-------------------|
E|--1--1--1--1-1------------------------------6-5-6-5-6-5-6-5--|

GUITAR (Lead):

e|--------------------------------------------------|
B|--6----10--8------8--6----------------------------|
G|------------------------------5/7--5--10--12--10--|
D|--3----7---5------5--3----------------------------|
A|------------------------------3/5--3--8---10--8---|
E|--------------------------------------------------|

BASS:

G|-----------------------------------------------------|
D|-----------------------------------------------------|
A|----------------3--3--3-----5--5--5--3--1--1--1-0-1--|
E|--1--1--1--1-1-----------1---------------------------|


Verse/Estrofa:

GUITAR (Vocals):

e|---------------------------------------------|
B|---------------------------------------------|
G|--10-----10--10/12-9------9--9--7-9--9/10-7--|
D|------12-------------------------------------|
A|---------------------------------------------|
E|---------------------------------------------|

GUITAR (Lead): Wah-Wah

e|-----------------------------------------|
B|---------------------------6-----6/8-\6--|
G|--------5--5--5-7-------------7----------|
D|-----------------------------------------|
A|-----------------------------------------|
E|-----------------------------------------|

GUITAR (Vocals):

e|----------------------------------------------|
B|----------------------------------------------|
G|--10-----10--10/12-9------9------7-9--9/10-7--|
D|------12---------------------10---------------|
A|----------------------------------------------|
E|----------------------------------------------|

GUITAR (Lead): Wah-Wah

e|------------------------------------------|
B|--------------------------8/9\8-p-6----6--|
G|--------5--5--5-7-------------------7-----|
D|------------------------------------------|
A|------------------------------------------|
E|------------------------------------------|

GUITAR (Vocals):

e|---------------------------------------------------|
B|---------------------------------------------------|
G|--------10-----10--10/12-9------9--9--7-9--9/10-7--|
D|--10/12-----12-------------------------------------|
A|---------------------------------------------------|
E|---------------------------------------------------|

GUITAR (Lead): Wah-Wah

e|-----------------------------------------|
B|---------------------------6-----6/8-\6--|
G|--------5--5--5-7-------------7----------|
D|-----------------------------------------|
A|-----------------------------------------|
E|-----------------------------------------|

BASS:

G|----------------------------------------|
D|----------------------------------------|
A|--5---5---3----------0---0---1----------|
E|----------------------------------------|

 


Pre-Chorus/Pre-Estribillo:

GUITAR (Vocals):

e|------|------------------------------------------------|
B|------|------10--10----------10--10--------------------|
G|--10--|--12----------10--12----------10--10h12--10-10--|
D|------|------------------------------------------------|
A|------|------------------------------------------------|
E|------|------------------------------------------------|

GUITAR (Lead):

e|-----|------------------------------------1--------|
B|-----|------6-----6-----6-----6-----------2--------|
G|-----|---------5-----------5-----3--------3--------|
D|--3--|--/5-----------5-----------------------------|
A|-----|---------------------------------------------|
E|-----|---------------------------------------------|

BASS:

G|-----------------------------------------|
D|-----------------------------------------|
A|--------------0-------0-1----------------|
E|--1-3-------3----------------------------|

 


Chorus/Estribillo:

GUITAR (Vocals):

e|--------------------------------------------------------------------|
B|--11/13-----------------------------11/13---------------------------|
G|---------10--10--12-10-9--10--10-----------10--10--12-10-9--10--10--|
D|--------------------------------------------------------------------|
A|--------------------------------------------------------------------|
E|--------------------------------------------------------------------|

GUITAR (Rhythm):

e|--1--1--1--1-1--3--3--3--3-3--5--5--5--5-5--6--6-----------|
B|--1--1--1--1-1--5--5--5--5-5--6--6--6--6-6--6--6-----------|
G|--2--2--2--2-2--5--5--5--5-5--7--7--7--7-7--7--7-----------|
D|--3--3--3--3-3--5--5--5--5-5--7--7--7--7-7--8--8--8-7-8-7--|
A|--3--3--3--3-3--3--3--3--3-3--5--5--5--5-5--8--8-----------|
E|--1--1--1--1-1------------------------------6--6--6-5-6-5--|

BASS:

G|---------------------------------------------------------|
D|---------------------------------------------------------|
A|----------------3--3--3--3-3--5--5--5--3--1--1--1-0-1-0--|
E|--1--1--1--1-1-------------------------------------------|

GUITAR (Vocals):

e|----------------------------------------------------------------------|
B|--10----10----10----10----10-----------------9/10----9----------------|
G|-----12----12----12----12----12----10--12-10--------------12--10--10--|
D|----------------------------------------------------------------------|
A|----------------------------------------------------------------------|
E|----------------------------------------------------------------------|

GUITAR (Rhythm):

e|--5--5--5--5-5--3--3--3--3-3--1--1--1--1-1--1--1---3--|
B|--6--6--6--6-6--5--5--5--5-5--3--3--3--3-3--3--3---5--|
G|--7--7--7--7-7--5--5--5--5-5--3--3--3--3-3--3--3---5--|
D|--7--7--7--7-7--5--5--5--5-5--3--3--3--3-3--3--3---5--|
A|--5--5--5--5-5--3--3--3--3-3--1--1--1--1-1--1--1---3--|
E|------------------------------------------------------|

BASS:

G|----------------------------------------------------------|
D|----------------------------------------------------------|
A|--5--5--5-3-5-3--3--3--3--3-0--1--1--1--1-0--1-0-1-0-1-3--|
E|----------------------------------------------------------|

GUITAR (Vocals):

e|---------------------------------------------------------------------|
B|--11/13-----------------------------11/13----------------9/10--9-----|
G|---------10--10--12-10-9--10--10-----------10--10--12-10----------9--|
D|---------------------------------------------------------------------|
A|---------------------------------------------------------------------|
E|---------------------------------------------------------------------|

GUITAR (Rhythm):

e|--1--1--1--1-1--3--3--3--3-3--5--5--5--5-5--6--6-----------|
B|--1--1--1--1-1--5--5--5--5-5--6--6--6--6-6--6--6-----------|
G|--2--2--2--2-2--5--5--5--5-5--7--7--7--7-7--7--7-----------|
D|--3--3--3--3-3--5--5--5--5-5--7--7--7--7-7--8--8--8-7-8-7--|
A|--3--3--3--3-3--3--3--3--3-3--5--5--5--5-5--8--8-----------|
E|--1--1--1--1-1------------------------------6--6--6-5-6-5--|

BASS:

G|---------------------------------------------------------|
D|---------------------------------------------------------|
A|----------------3--3--3--3-3--5--5--5--3--1--1--1-0-1-0--|
E|--1--1--1--1-1-------------------------------------------|

GUITAR (Vocals):

e|-------------------------------------------------------------------|
B|--10----10----10----10----10-----------------9/10----9-------------|
G|-----12----12----12----12----12----10--12-10--------------9--------|
D|-------------------------------------------------------------------|
A|-------------------------------------------------------------------|
E|-------------------------------------------------------------------|

GUITAR (Rhythm):

e|--5--5--5--5-5--3--3--3--3-3--1--1--1--1-1--1--1---0--|
B|--6--6--6--6-6--5--5--5--5-5--3--3--3--3-3--3--3---1--|
G|--7--7--7--7-7--5--5--5--5-5--3--3--3--3-3--3--3---2--|
D|--7--7--7--7-7--5--5--5--5-5--3--3--3--3-3--3--3---2--|
A|--5--5--5--5-5--3--3--3--3-3--1--1--1--1-1--1--1---0--|
E|------------------------------------------------------|

BASS:

G|--------------------------------------------------------|
D|--------------------------------------------------------|
A|--5--5--5-3-5-3--3--3--3--3-0--1--1--1--1-1--1--1--1-0--|
E|--------------------------------------------------------|

 


Outro:

GUITAR (Vocals):

e|--------------------------------------------------------------|
B|--------10-----------10-------------10--10--10--10------------|
G|------------12-10--------12-10----------------------10--------|
D|--10/12-------------------------------------------------------|
A|--------------------------------------------------------------|
E|--------------------------------------------------------------|

GUITAR (Rhythm):

e|--3--3--3--3-3--3--3--3--3-3--1--1--1--1-1--1--1--1--1-1--|
B|--5--5--5--5-5--5--5--5--5-5--1--1--1--1-1--1--1--1--1-1--|
G|--5--5--5--5-5--5--5--5--5-5--2--2--2--2-2--2--2--2--2-2--|
D|--5--5--5--5-5--5--5--5--5-5--3--3--3--3-3--3--3--3--3-3--|
A|--3--3--3--3-3--3--3--3--3-3--3--3--3--3-3--3--3--3--3-3--|
E|------------------------------1--1--1--1-1--1--1--1--1-1--|

BASS:

G|--------------------------------------------------------|
D|------------------------------------------3/5--3--------|
A|--1--1--1--1-1--1--1--1--1-1--------0-3-----------3-----|
E|------------------------------1--1-------------------1--|

GUITAR (Vocals):

e|----------------------------------------------------------------------|
B|--10----------------10------------------------------------------------|
G|------12-10-------------12-10------13--13--13--12--10------10/12--10--|
D|--------------10/12------------------------------------10-------------|
A|----------------------------------------------------------------------|
E|----------------------------------------------------------------------|

GUITAR (Rhythm):

e|--3--3--3--3-3--3--3--3--3-3--1--1--1--1--1------|
B|--3--3--3--3-3--3--3--3--3-3--3--3--3--3--3------|
G|--4--4--4--4-4--4--4--4--4-4--3--3--3--3--3------|
D|--3--3--3--3-3--3--3--3--3-3--3--1--3--3--3------|
A|--5--5--5--5-5--5--5--5--5-5--1--1--1--1--1------|
E|--3--3--3--3-3--3--3--3--3-3---------------------|

BASS:

G|----------------------------------------------|
D|-------------------5--------------------------|
A|-----2---3---4--5-----5--1--1--1--1--1--------|
E|--3-------------------------------------/--\--|


Solo (Fade Out):

GUITAR (Rhythm):

e|--1--1--1--1-1--3--3--3--3-3--5--5--5--5-5--6--6-----------|
B|--1--1--1--1-1--5--5--5--5-5--6--6--6--6-6--6--6-----------|
G|--2--2--2--2-2--5--5--5--5-5--7--7--7--7-7--7--7-----------|
D|--3--3--3--3-3--5--5--5--5-5--7--7--7--7-7--8--8--8-7-8-7--|
A|--3--3--3--3-3--3--3--3--3-3--5--5--5--5-5--8--8-----------|
E|--1--1--1--1-1------------------------------6--6--6-5-6-5--|

GUITAR (Lead):

e|---------------------------------------------------------------------|
B|------------------------------------------------6-6--8p6--6-------6--|
G|-----------------------------------------5-7-5----------------5/7----|
D|--8(b)----r--8p7-8p7-------------5---5-7-----------------------------|
A|----------------------8-8---5h8----8---------------------------------|
E|---------------------------------------------------------------------|

BASS:

G|---------------------------------------------------------|
D|---------------------------------------------------------|
A|----------------3--3--3--3-3--5--5--5--3--1--1--1-0-1-0--|
E|--1--1--1--1-1-------------------------------------------|

GUITAR (Rhythm):

e|--5--5--5--5-5--3--3--3--3-3--1--1--1--1-1--1--1---3--|
B|--6--6--6--6-6--5--5--5--5-5--3--3--3--3-3--3--3---5--|
G|--7--7--7--7-7--5--5--5--5-5--3--3--3--3-3--3--3---5--|
D|--7--7--7--7-7--5--5--5--5-5--3--3--3--3-3--3--3---5--|
A|--5--5--5--5-5--3--3--3--3-3--1--1--1--1-1--1--1---3--|
E|------------------------------------------------------|

GUITAR (Lead):

e|--------------------------------------------------------------------------|
B|--8p6--8b--8(b)--8(b)--8(b)r-p6-8-8---8-6-8/11----10----------------------|
G|--------------------------------------------------------10---------10-10--|
D|------------------------------------------------------------10/12---------|
A|--------------------------------------------------------------------------|
E|--------------------------------------------------------------------------|

BASS:

G|----------------------------------------------------------|
D|----------------------------------------------------------|
A|--5--5--5-3-5-3--3--3--3--3-0--1--1--1--1-0--1-0-1-0-1-3--|
E|----------------------------------------------------------|

be your girl - Tron544
00:00 / 00:00

©2019 by Fefe - Tron544

Sigueme en:

  • YouTube - White Circle
  • Facebook - White Circle
  • Instagram - White Circle
  • Twitter - White Circle
This site was designed with the
.com
website builder. Create your website today.
Start Now