~ BATTLE OF ROSE ~

TABLATURAS ~ By Fefe - Tron544

 

Intro:

 

e|--3------3------3------3------3------3------3------3--|

B|--4------3------4------3------4------3------4------3--|

G|--3------3------3------3------3------3------3------3--|

D|--5------3------5------3------5------3------5------3--|

A|--3------5------3------5------3------5------3------5--|

E|---------3-------------3-------------3-------------3--|

 

 

Verse/Estrofa:

 

e|------15------15--15--13--h15--13p------------------|

B|--13------13------------------------16--15----------|

G|--------------------------------------------15--12--|

D|----------------------------------------------------|

A|----------------------------------------------------|

E|----------------------------------------------------|

 

e|------------------10--------------10-------11--10--8------|--------------|

B|----------11--13-----------9--11----------------------12--|------12--13--|

G|--12--13---------------12--------------10-----------------|--14----------|

D|----------------------------------------------------------|--------------|

A|----------------------------------------------------------|--------------|

E|----------------------------------------------------------|--------------|

 

e|------15------15--15--13--h15--13p------------------|

B|--13------13------------------------16--15----------|

G|--------------------------------------------15--12--|

D|----------------------------------------------------|

A|----------------------------------------------------|

E|----------------------------------------------------|

 

e|------------------10--------------10-------11--10--8------|

B|----------11--13-----------9--11----------------------12--|

G|--12--13---------------12--------------10-----------------|

D|----------------------------------------------------------|

A|----------------------------------------------------------|

E|----------------------------------------------------------|

 

 

Chorus/Estribillo:

 

e|------------------------------13------13--15--|------16--15--13----------------------|

B|------12--13--15--13--15--16------16----------|--13--------------16--16--15--13--15--|

G|--14------------------------------------------|--------------------------------------|

D|----------------------------------------------|--------------------------------------|

A|----------------------------------------------|--------------------------------------|

E|----------------------------------------------|--------------------------------------|

 

e|------16--15--16--15--13----------|------15--13--15--13--------------|

B|--13----------------------16--15--|----------------------16--15--13--|

G|----------------------------------|--12------------------------------|

D|----------------------------------|----------------------------------|

A|----------------------------------|----------------------------------|

E|----------------------------------|----------------------------------|

 

e|------13--11--13--11--10----------------------|

B|--------------------------13--12--10--12--13--|

G|--10------------------------------------------|

D|----------------------------------------------|

A|----------------------------------------------|

E|----------------------------------------------|

 

 

Verse/Estrofa:

 

e|------15------15--15--13--h15--13p------------------|

B|--13------13------------------------16--15----------|

G|--------------------------------------------15--12--|

D|----------------------------------------------------|

A|----------------------------------------------------|

E|----------------------------------------------------|

 

e|------------------10--------------10-------11--10--8------|--------------|

B|----------11--13-----------9--11----------------------12--|------12--13--|

G|--12--13---------------12--------------10-----------------|--14----------|

D|----------------------------------------------------------|--------------|

A|----------------------------------------------------------|--------------|

E|----------------------------------------------------------|--------------|

 

e|------15------15--15--13--h15--13p------------------|

B|--13------13------------------------16--15----------|

G|--------------------------------------------15--12--|

D|----------------------------------------------------|

A|----------------------------------------------------|

E|----------------------------------------------------|

 

e|------------------10--------------10-------11--10--8------|

B|----------11--13-----------9--11----------------------12--|

G|--12--13---------------12--------------10-----------------|

D|----------------------------------------------------------|

A|----------------------------------------------------------|

E|----------------------------------------------------------|

 

 

 

Interlude/Intermedio:

 

GUITAR 1:

 

e|--3------3------3------3------3------3------3------3--|

B|--4------3------4------3------4------3------4------3--|

G|--3------3------3------3------3------3------3------3--|

D|--5------3------5------3------5------3------5------3--|

A|--3------5------3------5------3------5------3------5--|

E|---------3-------------3-------------3-------------3--|

 

GUITAR 2:

 

e|--15--18--20--15--18--20--|

B|--------------------------|

G|--------------------------|

D|--------------------------|

A|--------------------------|

E|--------------------------|

 

 

Solo:

 

e|-----------------------------|----------------------------------|

B|-----------------------------|----------------------------------|

G|-----------------------------|----------------------------------|

D|--12--/12--/13-15-12---------|------------------------------13--|

A|----------------------13-----|--13--h15--13----------13-15------|

E|--------------------------15-|---------------13--15-------------|

 

e|----------------------------------------------------------|

B|--------------------------------------------------13------|

G|------------------------12----13--12--15--12--13------12--|

D|--12---------12--13--15----13-----------------------------|

A|-----13--15-----------------------------------------------|

E|----------------------------------------------------------|

 

e|-----------------------------------|------------------------------------|

B|--13--15--15b--15--13--12--15------|--/13--13--11-------------------11--|

G|-------------------------------12--|---------------12--10--12--/12------|

D|-----------------------------------|------------------------------------|

A|-----------------------------------|------------------------------------|

E|-----------------------------------|------------------------------------|

 

e|--13b------11--13--15--11------|-------------8--10------------------8--h10--/10--|

B|---------------------------13--|----------9---------11----------11---------------|

G|-------------------------------|-------8--------------------10-------------------|

D|-------------------------------|--/10-------------------12-----------------------|

A|-------------------------------|-------------------------------------------------|

E|-------------------------------|-------------------------------------------------|

 

e|------------------------------/15--|

B|--------------------------15-------|

G|-------------10--12--/12-----------|

D|------9--12------------------------|

A|--10-------------------------------|

E|-----------------------------------|

 

 

Chorus/Estribillo:

 

e|------------------------------13------13--15--|------16--15--13----------------------|

B|------12--13--15--13--15--16------16----------|--13--------------16--16--15--13--15--|

G|--14------------------------------------------|--------------------------------------|

D|----------------------------------------------|--------------------------------------|

A|----------------------------------------------|--------------------------------------|

E|----------------------------------------------|--------------------------------------|

 

e|------16--15--16--15--13----------|------15--13--15--13--------------|

B|--13----------------------16--15--|----------------------16--15--13--|

G|----------------------------------|--12------------------------------|

D|----------------------------------|----------------------------------|

A|----------------------------------|----------------------------------|

E|----------------------------------|----------------------------------|

 

e|------13--11--13--11--10----------------------|

B|--------------------------13--12--10--12--13--|

G|--10------------------------------------------|

D|----------------------------------------------|

A|----------------------------------------------|

E|----------------------------------------------|

 

 

Verse/Estrofa:

 

e|------15------15--15--13--h15--13p------------------|

B|--13------13------------------------16--15----------|

G|--------------------------------------------15--12--|

D|----------------------------------------------------|

A|----------------------------------------------------|

E|----------------------------------------------------|

 

e|------------------10--------------10-------11--10--8------|--------------|

B|----------11--13-----------9--11----------------------12--|------12--13--|

G|--12--13---------------12--------------10-----------------|--14----------|

D|----------------------------------------------------------|--------------|

A|----------------------------------------------------------|--------------|

E|----------------------------------------------------------|--------------|

 

e|------15------15--15--13--h15--13p------------------|

B|--13------13------------------------16--15----------|

G|--------------------------------------------15--12--|

D|----------------------------------------------------|

A|----------------------------------------------------|

E|----------------------------------------------------|

 

e|------------------10--------------10-------11--10--8------|

B|----------11--13-----------9--11----------------------12--|

G|--12--13---------------12--------------10-----------------|

D|----------------------------------------------------------|

A|----------------------------------------------------------|

E|----------------------------------------------------------|

 

 

Outro:

 

GUITAR 1:

 

e|--3------3------3------3------3------3------3------3--|

B|--4------3------4------3------4------3------4------3--|

G|--3------3------3------3------3------3------3------3--|

D|--5------3------5------3------5------3------5------3--|

A|--3------5------3------5------3------5------3------5--|

E|---------3-------------3-------------3-------------3--|

 

GUITAR 2:

 

e|--15--18--20--15--18--20--|

B|--------------------------|

G|--------------------------|

D|--------------------------|

A|--------------------------|

E|--------------------------|

 

GUITAR 1:

 

e|--3------3------3------3------3------3------3------3--|--3--|

B|--4------3------4------3------4------3------4------3--|--4--|

G|--3------3------3------3------3------3------3------3--|--3--|

D|--5------3------5------3------5------3------5------3--|--5--|

A|--3------5------3------5------3------5------3------5--|--3--|

E|---------3-------------3-------------3-------------3--|-----|

 

 

Battle of Rose - Tron544
00:00 / 00:00

©2019 by Fefe - Tron544

Sigueme en:

  • YouTube - White Circle
  • Facebook - White Circle
  • Instagram - White Circle
  • Twitter - White Circle
This site was designed with the
.com
website builder. Create your website today.
Start Now