BATON ROAD

BORUTO: NARUTO NEXT GENERATIONS

TABS ~ By Fefe (Tron544)

 

Intro:

GUITAR (Vocals):

eb|---------------------------------------------------------------|
Bb|------7-10--7--------------------------7-10--7-----------7-----|
Gb|--7-9---------9-7-7---7-/-9--7---7-7-9---------9-7-7--9-----9--|
Db|--------------------9------------------------------------------|
Ab|---------------------------------------------------------------|
Eb|---------------------------------------------------------------|

GUITAR (Rhythm):

eb|--3-3--|--3--------0-0-0--------2-2-2----2-2-2----2-2-2----------|
Bb|--3-3--|--3--------2-2-2--------3-3-3----3-3-3----3-3-3----------|
Gb|--0-0--|--0--------2-2-2--------4-4-4----4-4-4----2-2-2----------|
Db|--0-0--|--0--------2-2-2--------4-4-4----4-4-4----0-0-0----------|
Ab|--2-2--|--2--------0-0-0--------2-2-2----2-2-2-------------------|
Eb|--3-3--|--3------------------------------------------------15-\--|

GUITAR (Lead):

eb|-------|-------------------------------------------------------------------------|
Bb|-------|-----------10-10-10--------12-12-12----14-14-14----15-15-15----17-17-17--|
Gb|--7-7--|--7----------------------------------------------------------------------|
Db|-------|-----------7--7--7---------9--9--9-----11-11-11----12-12-12----14-14-14--|
Ab|--5-5--|--5----------------------------------------------------------------------|
Eb|-------|-------------------------------------------------------------------------|

BASS:

Gb|-------------------------------------------------|
Db|-------------------------------------------------|
Ab|------------------------------5------5-/-17-\-5--|
Eb|--3--------5--------7----7-----------------------|

GUITAR (Vocals):

eb|----------------------------------------|
Bb|-------------------7-10-----------------|
Gb|--7----7-/-9--7--7-------7-7-6-6-6-/-7--|
Db|----7-----------------------------------|
Ab|----------------------------------------|
Eb|----------------------------------------|

GUITAR (Harmony):

eb|--10-10-9-9-9-/-10--|
Bb|--------------------|
Gb|--------------------|
Db|--------------------|
Ab|--------------------|
Eb|--------------------|

GUITAR (Rhythm):

eb|--3----------------0-0-#-#-0-0-0--|
Bb|--3----------------2-2-#-#-2-2-2--|
Gb|--0----------------2-2-#-#-2-2-2--|
Db|--0-x-x-x-x-x-x-x--2-2-#-#-2-2-2--|
Ab|--2-x-x-x-x-x-x-x--0-0-#-#-0-0-0--|
Eb|--3-x-x-x-x-x-x-x-----------------|

GUITAR (Lead):

eb|---------------------------------------|
Bb|-------------------10-10-#-#-10-10-10--|
Gb|--7-x-x-x-x-x-x-x--------#-#-----------|
Db|-------------------7--7--#-#-7--7--7---|
Ab|--5-x-x-x-x-x-x-x----------------------|
Eb|---------------------------------------|

BASS:

Gb|-----------------------------------------|
Db|-----------------------------------------|
Ab|--------------------------10-/-12--------|
Eb|--3-3-3-3-3-3-3-3--5-5-------------12-\--|

GUITAR (Rhythm):

eb|--3--3-3--3-3-3--0--0-0--0-0-0--2--2-2-2-2-2-2--2-2-2-2-2-2--|
Bb|--3--3-3--3-3-3--2--2-2--2-2-2--3--3-3-3-3-3-3--3-3-3-3-3-3--|
Gb|--0--0-0--0-0-0--2--2-2--2-2-2--4--4-4-4-4-4-4--4-4-4-4-4-4--|
Db|--0--0-0--0-0-0--2--2-2--2-2-2--4--4-4-4-4-4-4--4-4-4-4-4-4--|
Ab|--2--2-2--2-2-2--0--0-0--0-0-0--2--2-2-2-2-2-2--2-2-2-2-2-2--|
Eb|--3--3-3--3-3-3----------------------------------------------|

GUITAR (Lead):

eb|---------------------7----9----9-/-10--|
Bb|------7-10--10-7-----------------------|
Gb|--7-9------------9-7-------------------|
Db|---------------------------------------|
Ab|---------------------------------------|
Eb|---------------------------------------|

BASS:

Gb|-------------------------------------------------------------------------|
Db|--------------------------------------------------7-/-9--9-7-9-----------|
Ab|---------------------------------------------------------------9-7-------|
Eb|--3-3-3-3-3-3-3-3--5-5-5-5-5-5-5-5--7-7-7-7-7-7-7------------------10-7--|


Verse/Estrofa:

GUITAR (Vocals):

eb|-----|------------------------------------------------------|
Bb|-----|------------------8-7----------------------10---------|
Gb|-----|--7-----7-----7-9----------7-----7-----7-9----7-------|
Db|--9--|------9-----9------------9-----9-----9-------------9--|
Ab|-----|------------------------------------------------------|
Eb|-----|------------------------------------------------------|

GUITAR (Rhythm):

eb|--3----------------2----------------|
Bb|--3----------------3----------------|
Gb|--0----------------2----------------|
Db|--0----------------0----------------|
Ab|--2---------------------------------|
Eb|--3----------------2----------------|

GUITAR (Lead):

eb|----------------------------------------------------------------------|
Bb|--5-#-#-7-#-#-5-#-#-7-#-#-10-#-7-#--5-#-#-7-#-#-5-#-#-7-#-#-10-#-7-#--|
Gb|--7-#-#-7-#-#-7-#-#-7-#-#-7--#-7-#--7-#-#-7-#-#-7-#-#-7-#-#-7--#-7-#--|
Db|----------------------------------------------------------------------|
Ab|----------------------------------------------------------------------|
Eb|----------------------------------------------------------------------|

BASS:

Gb|--------------------------------------------------------------------|
Db|--------------------------------------------------------------------|
Ab|--------------------------------------------------------------------|
Eb|--3-3-3-3-3-3-3-3-3-3-3-3-3-3-3-3--2-2-2-2-2-2-2-2-2-2-2-2-2-2-2-2--|

GUITAR (Vocals):

eb|--------------------------------------------------|
Bb|------------------8-7-----------------------------|
Gb|--7-----7-----7-9------7--7-7---------------------|
Db|------9-----9-------------------9-\-7----------9--|
Ab|--------------------------------------------------|
Eb|--------------------------------------------------|

GUITAR (Harmony):

eb|--10----------------|
Bb|-------12-\-10---7--|
Gb|--------------------|
Db|--------------------|
Ab|--------------------|
Eb|--------------------|

GUITAR (Rhythm):

eb|--3----------------2--------2-2-2-2--2-2-2--|
Bb|--3----------------3--------3-3-3-3--3-3-3--|
Gb|--0----------------2--------2-2-2-2--2-2-2--|
Db|--0----------------0--------0-0-0-0--0-0-0--|
Ab|--2-----------------------------------------|
Eb|--3----------------2--------2-2-2-2--2-2-2--|

GUITAR (Lead):

eb|---------------------------------------------------------------------|
Bb|--5-#-#-7-#-#-5-#-#-7-#-#-10-#-7-#--2-#-#-3-#-#-2-#-#-3-#-#-7-#-5-#--|
Gb|--7-#-#-7-#-#-7-#-#-7-#-#-7--#-7-#--2-#-#-2-#-#-2-#-#-2-#-#-7-#-7-#--|
Db|---------------------------------------------------------------------|
Ab|---------------------------------------------------------------------|
Eb|---------------------------------------------------------------------|

BASS:

Gb|---------------------------------------------------------------------------|
Db|---------------------------------------------------------------------------|
Ab|-------------------------------------------------------------9-10--9-------|
Eb|--3-3-3-3-3-3-3-3-3-3-3-3-3-3-3-3--2-2-2-2-2-2-2-2-2-/-10-10---------10-\--|

GUITAR (Vocals):

eb|-------------------------------------------------|
Bb|------------------8-7----------------------10----|
Gb|--7-----7-----7-9----------7-----7-----7-9----7--|
Db|------9-----9------------9-----9-----9-----------|
Ab|-------------------------------------------------|
Eb|-------------------------------------------------|

GUITAR (Harmony):

eb|---------------------7----------------------------10-----|
Bb|--10---7-10-----7-10---10----7-10---7-10-----7-10----10--|
Gb|--------------7----------------------------7-------------|
Db|---------------------------------------------------------|
Ab|---------------------------------------------------------|
Eb|---------------------------------------------------------|

GUITAR (Rhythm):

eb|--3----------------2----------------|
Bb|--3----------------3----------------|
Gb|--0----------------2----------------|
Db|--0----------------0----------------|
Ab|--2---------------------------------|
Eb|--3----------------2----------------|

GUITAR (Lead):

eb|----------------------------------------------------------------------|
Bb|--5-#-#-7-#-#-5-#-#-7-#-#-10-#-7-#--5-#-#-7-#-#-5-#-#-7-#-#-10-#-7-#--|
Gb|--7-#-#-7-#-#-7-#-#-7-#-#-7--#-7-#--7-#-#-7-#-#-7-#-#-7-#-#-7--#-7-#--|
Db|----------------------------------------------------------------------|
Ab|----------------------------------------------------------------------|
Eb|----------------------------------------------------------------------|

BASS:

Gb|--------------------------------------------------------------------|
Db|--------------------------------------------------------------------|
Ab|--------------------------------------------------------------------|
Eb|--3-3-3-3-3-3-3-3-3-3-3-3-3-3-3-3--2-2-2-2-2-2-2-2-2-2-2-2-2-2-2-2--|

GUITAR (Vocals):

eb|----------------------------------|
Bb|-------7--7-7-8-8-/-10------------|
Gb|------------------------9--\-7-7--|
Db|--9-------------------------------|
Ab|----------------------------------|
Eb|----------------------------------|

GUITAR (Rhythm):

eb|--0--0-0--0-0-0--0--0-0--0-0-0--2--2-2-2-2-2-3--3-3-2--2-2--|
Bb|--0--0-0--0-0-0--2--2-2--2-2-2--3--3-3-3-3-3-3--3-3-3--3-3--|
Gb|--0--0-0--0-0-0--2--2-2--2-2-2--2--2-2-2-2-2-2--2-2-2--2-2--|
Db|--2--2-2--2-2-2--2--2-2--2-2-2--0--0-0-0-0-0-0--0-0-0--0-0--|
Ab|--2--2-2--2-2-2--0--0-0--0-0-0------------------------------|
Eb|--0--0-0--0-0-0---------------------------------------------|

GUITAR (Lead):

eb|-----------------------------------------------------|
Bb|--2-#-#-3-#-#-3-#--7-#-#-5-#-#-5-#--7-------7--------|
Gb|--2-#-#-2-#-#-2-#--7-#-#-7-#-#-7-#--7----------7-----|
Db|------------------------------------7-------------7--|
Ab|-----------------------------------------------------|
Eb|-----------------------------------------------------|

BASS:

Gb|------------------------------------------------------------------|
Db|------------------------------------------------------------------|
Ab|-----------------------------------5-5-5-5-5-5--5--5-5-5-7-7-5-5--|
Eb|--0-0-0-0-0-0-0-0-5-5-5-5-5-5-5-5---------------------------------|


Pre-Chorus/Pre-Estribillo:

GUITAR (Vocals):

eb|--------------------------------------------------------------|
Bb|--7-7--------8-/-10---7----7----7-7--------8-/-10---7----7----|
Gb|-------9-9---------------9---9-------9-9---------------9---9--|
Db|--------------------------------------------------------------|
Ab|--------------------------------------------------------------|
Eb|--------------------------------------------------------------|

GUITAR (Harmony):

eb|---------------10-/-12------------------------------10-/-12-----------------|
Bb|--10-10--8-8-------------12--10-12-10--10-10--8-8-------------12--10-12-10--|
Gb|----------------------------------------------------------------------------|
Db|----------------------------------------------------------------------------|
Ab|----------------------------------------------------------------------------|
Eb|----------------------------------------------------------------------------|

GUITAR (Rhythm):

eb|--0-0--0-0---0--0-0-0-0-0-0-0--2-2--2-2---2--2-2-2-2-2-2-2--|
Bb|--0-0--0-0---0--0-0-0-0-0-0-0--3-3--3-3---3--3-3-3-3-3-3-3--|
Gb|--0-0--0-0---0--0-0-0-0-0-0-0--2-2--2-2---2--2-2-2-2-2-2-2--|
Db|--2-2--2-2---2--2-2-2-2-2-2-2--0-0--0-0---0--0-0-0-0-0-0-0--|
Ab|--2-2--2-2---2--2-2-2-2-2-2-2-------------------------------|
Eb|--0-0--0-0---0--0-0-0-0-0-0-0--2-2--2-2---2--2-2-2-2-2-2-2--|

GUITAR (Lead):

eb|-----------------------------------------------------------------------------|
Bb|---------------10--10-10-10-10-10-10-10---------------10--10-10-10-10-12-12--|
Gb|--11-11--9-9-----------------------------11-11--9-9--------------------------|
Db|---------------7---7--7--7--7--7--7--7----------------7---7--7--7--7--9--9---|
Ab|--9--9---7-7-----------------------------9--9---7-7--------------------------|
Eb|-----------------------------------------------------------------------------|

BASS:

Gb|----------------------------------------------------------|
Db|----------------------------------------------------------|
Ab|----------------------------------------------------------|
Eb|--0-0--0-0--0--0-0-0-0-0-0-0--2-2--2-2--2--2-2-2-2-2-2-2--|

GUITAR (Vocals):

eb|----------------------------------|
Bb|--------7--8--7-------------------|
Gb|--7--9------------7-7---9-/-11-9--|
Db|----------------------------------|
Ab|----------------------------------|
Eb|----------------------------------|

GUITAR (Harmony):

eb|--------------------|
Bb|--7-7---10-/-12-10--|
Gb|--------------------|
Db|--------------------|
Ab|--------------------|
Eb|--------------------|

GUITAR (Rhythm):

eb|--3--3-3--3-3-3--3--3-3--3-3-3--0--0-0--0-0-0--0-0--0-0--|
Bb|--3--3-3--3-3-3--3--3-3--3-3-3--2--2-2--2-2-2--2-2--2-2--|
Gb|--0--0-0--0-0-0--0--0-0--0-0-0--2--2-2--2-2-2--2-2--2-2--|
Db|--0--0-0--0-0-0--0--0-0--0-0-0--2--2-2--2-2-2--2-2--2-2--|
Ab|--2--2-2--2-2-2--2--2-2--2-2-2--0--0-0--0-0-0--0-0--0-0--|
Eb|--3--3-3--3-3-3--3--3-3--3-3-3---------------------------|

GUITAR (Lead):

eb|--------------------------------------------------------------------|
Bb|--8------7-8--7--5---5-/-10--10-10-10-10-10-10-10-10--10-10--10-10--|
Gb|--------------------------------------------------------------------|
Db|--5------4-5--4--2---2-/-7---7--7--7--7--7--7--7--7---7--7---7--7---|
Ab|--------------------------------------------------------------------|
Eb|--------------------------------------------------------------------|

BASS:

Gb|----------------------------------------------------------------------------|
Db|----------------------------------------------------------------------------|
Ab|------------------------------------------------7-/-12--12-12--12-12--------|
Eb|--3-3-3-3-3-3-3-3--3-3-3-3-3-3-3-3--5-5-5-5-5-5-----------------------12-\--|

Baton Road - Tron544
00:00 / 00:00
DONATE%20BUTTON%20(EN)_edited.png

Chorus/Estribillo:

GUITAR (Vocals):

eb|---------------------------------------------------------------|
Bb|------7-10--7--------------------------7-10--7-----------7-----|
Gb|--7-9---------9-7-7---7-/-9--7---7-7-9---------9-7-7--9-----9--|
Db|--------------------9------------------------------------------|
Ab|---------------------------------------------------------------|
Eb|---------------------------------------------------------------|

GUITAR (Harmony):

eb|-----7-9-10--9-7---------5-/-7-------------7-9-10--9-7--------7--9-/-10--9--|
Bb|--10-------------10-10-7--------10---10-10-------------10-10----------------|
Gb|----------------------------------------------------------------------------|
Db|----------------------------------------------------------------------------|
Ab|----------------------------------------------------------------------------|
Eb|----------------------------------------------------------------------------|

GUITAR (Rhythm):

eb|--3--3-3--3-3-3--0--0-0--0-0-0--2--2-2--2-2-2--2--2-2--2-2-2--|
Bb|--3--3-3--3-3-3--2--2-2--2-2-2--3--3-3--3-3-3--3--3-3--3-3-3--|
Gb|--0--0-0--0-0-0--2--2-2--2-2-2--4--4-4--4-4-4--2--2-2--2-2-2--|
Db|--0--0-0--0-0-0--2--2-2--2-2-2--4--4-4--4-4-4--0--0-0--0-0-0--|
Ab|--2--2-2--2-2-2--0--0-0--0-0-0--2--2-2--2-2-2-----------------|
Eb|--3--3-3--3-3-3-----------------------------------------------|

GUITAR (Lead):

eb|--------------------------------------------------------------------------------------------------------|
Bb|--------------------------------------------------------------------------------------------------------|
Gb|--7-7-7-7-7-7-7-7-7-9-9-9-9-9-11-11-11-11-11--14-14-14-14-14-14-14-14-14-16-16-16-16-16-11-11-11-11-11--|
Db|--------------------------------------------------------------------------------------------------------|
Ab|--5-5-5-5-5-5-5-5-5-7-7-7-7-7-9--9--9--9--9---12-12-12-12-12-12-12-12-12-14-14-14-14-14-9--9--9--9--9---|
Eb|--------------------------------------------------------------------------------------------------------|

BASS:

Gb|----------------------------------------------------------------------|
Db|----------------------------------------------------------------------|
Ab|-----------------------------------------------------5-5-5-5-5-5-7-7--|
Eb|--3-3-3-3-3-3-3-3--5-5-5-5-5-5-5-5--7-7-7-7-7-7-7-7-------------------|

GUITAR (Vocals):

eb|---------------------------------------------------------------|
Bb|-------------------------------------7--8--7--8--7-------------|
Gb|--7----7-/-9--7--7-7-----7-/-9--7--7------------------7-/-9-7--|
Db|----7----------------7-7---------------------------7-----------|
Ab|---------------------------------------------------------------|
Eb|---------------------------------------------------------------|

GUITAR (Harmony):

eb|-------------------------------------9--10--9--10--9----------------|
Bb|--7----7-/-8--7--7-7-----7-/-8--7--7-----------------7--10-/-12-10--|
Gb|----9----------------9-9--------------------------------------------|
Db|--------------------------------------------------------------------|
Ab|--------------------------------------------------------------------|
Eb|--------------------------------------------------------------------|

GUITAR (Rhythm):

eb|--3--3-3--3-3-3--0--0-0--0-0-0---2--2-2--------2--2-2-0--0-0--|
Bb|--3--3-3--3-3-3--2--2-2--2-2-2---3--3-3-2--2-2-3--3-3-0--0-0--|
Gb|--0--0-0--0-0-0--2--2-2--2-2-2---4--4-4-2--2-2-2--2-2-1--1-1--|
Db|--0--0-0--0-0-0--2--2-2--2-2-2---4--4-4-2--2-2-0--0-0-2--2-2--|
Ab|--2--2-2--2-2-2--0--0-0--0-0-0---2--2-2-4--4-4--------2--2-2--|
Eb|--3--3-3--3-3-3---------------------------------------0--0-0--|

GUITAR (Lead):

eb|-----------------------------------------------------------------------------------------|
Bb|-----------------------------------------------------------------------------------------|
Gb|--7-7-7-7-7-7-7-7-7--9-9-9-9-9-11-11-11-11-11--4-4-4-4-4-6-6-6-6-6--7-7-7-7-7-9-9-9-9-9--|
Db|-----------------------------------------------------------------------------------------|
Ab|--5-5-5-5-5-5-5-5-5--7-7-7-7-7-9--9--9--9--9---2-2-2-2-2-4-4-4-4-4--5-5-5-5-5-7-7-7-7-7--|
Eb|-----------------------------------------------------------------------------------------|

BASS:

Gb|------------------------------------------------------------------------------|
Db|------------------------------------------------------------------------------|
Ab|------------------------------------------------------------------------------|
Eb|--3-3-3-3-3-3-3-3--5-5-5-5-5-5-5-5--7-7-7-7-9-9-9-9--10-10-10-10-12-12-12-12--|

GUITAR (Vocals):

eb|---------------------------------------------------------------|
Bb|------7-10--7--------------------------7-10--7-----------7-----|
Gb|--7-9---------9-7-7---7-/-9--7---7-7-9---------9-7-7--9-----9--|
Db|--------------------9------------------------------------------|
Ab|---------------------------------------------------------------|
Eb|---------------------------------------------------------------|

GUITAR (Harmony):

eb|-----7-9-10--9-7---------5-/-7-------------7-9-10--9-7--------7--9-/-10--9--|
Bb|--10-------------10-10-7--------10---10-10-------------10-10----------------|
Gb|----------------------------------------------------------------------------|
Db|----------------------------------------------------------------------------|
Ab|----------------------------------------------------------------------------|
Eb|----------------------------------------------------------------------------|

GUITAR (Rhythm):

eb|--3--3-3--3-3-3--0--0-0--0-0-0--2--2-2--2-2-2--2--2-2--2-2-2--|
Bb|--3--3-3--3-3-3--2--2-2--2-2-2--3--3-3--3-3-3--3--3-3--3-3-3--|
Gb|--0--0-0--0-0-0--2--2-2--2-2-2--4--4-4--4-4-4--2--2-2--2-2-2--|
Db|--0--0-0--0-0-0--2--2-2--2-2-2--4--4-4--4-4-4--0--0-0--0-0-0--|
Ab|--2--2-2--2-2-2--0--0-0--0-0-0--2--2-2--2-2-2-----------------|
Eb|--3--3-3--3-3-3-----------------------------------------------|

GUITAR (Lead):

eb|--------------------------------------------------------------------------------------------------------|
Bb|--------------------------------------------------------------------------------------------------------|
Gb|--7-7-7-7-7-7-7-7-7-9-9-9-9-9-11-11-11-11-11--14-14-14-14-14-14-14-14-14-16-16-16-16-16-11-11-11-11-11--|
Db|--------------------------------------------------------------------------------------------------------|
Ab|--5-5-5-5-5-5-5-5-5-7-7-7-7-7-9--9--9--9--9---12-12-12-12-12-12-12-12-12-14-14-14-14-14-9--9--9--9--9---|
Eb|--------------------------------------------------------------------------------------------------------|

BASS:

Gb|----------------------------------------------------------------------|
Db|----------------------------------------------------------------------|
Ab|-----------------------------------------------------5-5-5-5-5-5-7-7--|
Eb|--3-3-3-3-3-3-3-3--5-5-5-5-5-5-5-5--7-7-7-7-7-7-7-7-------------------|

GUITAR (Vocals):

eb|----------------------------------------|
Bb|-------------------7-10-----------------|
Gb|--7----7-/-9--7--7-------7-7-6-6-6-/-7--|
Db|----7-----------------------------------|
Ab|----------------------------------------|
Eb|----------------------------------------|

GUITAR (Harmony):

eb|--10-10-9-9-9-/-10--|
Bb|--------------------|
Gb|--------------------|
Db|--------------------|
Ab|--------------------|
Eb|--------------------|

GUITAR (Rhythm):

eb|--3--3-3--3-3-3--0--0-0--0-0-0--|
Bb|--3--3-3--3-3-3--2--2-2--2-2-2--|
Gb|--0--0-0--0-0-0--2--2-2--2-2-2--|
Db|--0--0-0--0-0-0--2--2-2--2-2-2--|
Ab|--2--2-2--2-2-2--0--0-0--0-0-0--|
Eb|--3--3-3--3-3-3-----------------|

GUITAR (Lead):

eb|------------------------------------|
Bb|------------------------------------|
Gb|--7-7-7-7-7-7-7-7-7--9-9-9-9-9-9-9--|
Db|------------------------------------|
Ab|--5-5-5-5-5-5-5-5-5--7-7-7-7-7-7-7--|
Eb|------------------------------------|

BASS:

Gb|--------------------------------------|
Db|--------------------------------------|
Ab|----------------------------12-12-----|
Eb|--3-3-3-3-3-3-3-3--5-5-5-5--------12--|

 


Outro:

GUITAR (Vocals):

eb|-------------------------|
Bb|----7-10-----------------|
Gb|--7-------7-7-6-6-6-/-7--|
Db|-------------------------|
Ab|-------------------------|
Eb|-------------------------|

GUITAR (Harmony):

eb|--10-10-9-9-9-/-10--|
Bb|--------------------|
Gb|--------------------|
Db|--------------------|
Ab|--------------------|
Eb|--------------------|

GUITAR (Rhythm):

eb|--3--3-3--3-3-3--0--0-0--0-0-0--2--2-2--2-2-2--2--2-2--2-2-2--|
Bb|--3--3-3--3-3-3--2--2-2--2-2-2--3--3-3--3-3-3--3--3-3--3-3-3--|
Gb|--0--0-0--0-0-0--2--2-2--2-2-2--4--4-4--4-4-4--2--2-2--2-2-2--|
Db|--0--0-0--0-0-0--2--2-2--2-2-2--4--4-4--4-4-4--0--0-0--0-0-0--|
Ab|--2--2-2--2-2-2--0--0-0--0-0-0--2--2-2--2-2-2-----------------|
Eb|--3--3-3--3-3-3-----------------------------------------------|

GUITAR (Lead):

eb|--------------------------------------------------------7--------10---9----|
Bb|------7-10--7-------------------------------7-10--7-------7-10-7----7---7--|
Gb|--7-9---------9-7-9-p-7---7-9-7--7-/-9--7-9---------9-7--------------------|
Db|------------------------9--------------------------------------------------|
Ab|---------------------------------------------------------------------------|
Eb|---------------------------------------------------------------------------|

BASS:

Gb|----------------------------------------------------------------------|
Db|----------------------------------------------------------------------|
Ab|-----------------------------------------------------5-5-5-5-5-5-7-7--|
Eb|--3-3-3-3-3-3-3-3--5-5-5-5-5-5-5-5--7-7-7-7-7-7-7-7-------------------|

GUITAR (Vocals):

eb|-------------------------------------|
Bb|----7-10--------10-/-12-10-h-12--10--|
Gb|--7-------7-7-7----------------------|
Db|-------------------------------------|
Ab|-------------------------------------|
Eb|-------------------------------------|

GUITAR (Harmony):

eb|--10-10-10-12-10-h-12--10--|
Bb|---------------------------|
Gb|---------------------------|
Db|---------------------------|
Ab|---------------------------|
Eb|---------------------------|

GUITAR (Rhythm):

eb|--3--3-3--3-3-3--0--0-0--0-0-0---2--2-2--------2--2-2-0--0-0--|
Bb|--3--3-3--3-3-3--2--2-2--2-2-2---3--3-3-2--2-2-3--3-3-0--0-0--|
Gb|--0--0-0--0-0-0--2--2-2--2-2-2---4--4-4-2--2-2-2--2-2-1--1-1--|
Db|--0--0-0--0-0-0--2--2-2--2-2-2---4--4-4-2--2-2-0--0-0-2--2-2--|
Ab|--2--2-2--2-2-2--0--0-0--0-0-0---2--2-2-4--4-4--------2--2-2--|
Eb|--3--3-3--3-3-3---------------------------------------0--0-0--|

GUITAR (Lead):

eb|----------------------------------------------------------10--|
Bb|------7-10--7-----------------------------10------------7-----|
Gb|--7-9---------9-7-9-p-7---7-9-7--9--9-b--------9-r--7-9-------|
Db|------------------------9-------------------------------------|
Ab|--------------------------------------------------------------|
Eb|--------------------------------------------------------------|

BASS:

Gb|------------------------------------------------------------------------------|
Db|------------------------------------------------------------------------------|
Ab|------------------------------------------------------------------------------|
Eb|--3-3-3-3-3-3-3-3--5-5-5-5-5-5-5-5--7-7-7-7-9-9-9-9--10-10-10-10-12-12-12-12--|

GUITAR (Rhythm):

eb|--3--3-3--3-3-3--0--0-0--0-0-0--2-x-x-2-x-x-2-x-x-2-x-x-2-2-2-2--|
Bb|--3--3-3--3-3-3--2--2-2--2-2-2--3-x-x-3-x-x-3-x-x-3-x-x-3-3-3-3--|
Gb|--0--0-0--0-0-0--2--2-2--2-2-2--4-x-x-4-x-x-4-x-x-4-x-x-4-4-4-4--|
Db|--0--0-0--0-0-0--2--2-2--2-2-2--4-x-x-4-x-x-4-x-x-4-x-x-4-4-4-4--|
Ab|--2--2-2--2-2-2--0--0-0--0-0-0--2-x-x-2-x-x-2-x-x-2-x-x-2-2-2-2--|
Eb|--3--3-3--3-3-3--------------------------------------------------|

GUITAR (Lead):

eb|---------------------7----9----9-/-10------------10-10-10-10--|
Bb|------7-10--10-7----------------------------------------------|
Gb|--7-9------------9-7-----------------------------7--7--7--7---|
Db|--------------------------------------------------------------|
Ab|--------------------------------------------------------------|
Eb|--------------------------------------------------------------|

BASS:

Gb|---------------------------------------------------------------------|
Db|------------------------------------7-9-9-7-9-9-7-9-9-7-9-9----------|
Ab|---------------------------------------------------------------------|
Eb|--3-3-3-3-3-3-3-3--5-5-5-5-5-5-5-5--------------------------7-7-7-7--|

©2015 by Fefe - Tron544

Sigueme en:

  • YouTube - White Circle
  • Facebook - White Circle
  • Instagram - White Circle
  • Twitter - White Circle
This site was designed with the
.com
website builder. Create your website today.
Start Now