~ AZUSA'S SOLOS ~

TABLATURAS ~ By Fefe - Tron544

 

Solo #1:

 

e|--------12-----------------12-----------|

B|------------15-p-12------------15-p-12--|

G|--14-b---------------14-b---------------|

D|----------------------------------------|

A|----------------------------------------|

E|----------------------------------------|

 

e|--------12---------------------------------------|

B|------------15-p-12------------------------------|

G|--14-b---------------14-b-r--12------14------12--|

D|---------------------------------14------14------|

A|-------------------------------------------------|

E|-------------------------------------------------|

 

e|-------------------9----------------------19-b--19--18--17----------------------|

B|----------------9-----12--12-b--------17--------------------20-b-r--17------20--|

G|---------9--11--------------------18------------------------------------18------|

D|--9--11-------------------------------------------------------------------------|

A|--------------------------------------------------------------------------------|

E|--------------------------------------------------------------------------------|

 

e|--------------------19-----------------------|

B|--19-b--19-b--19-b------17-h-19-p-17---------|

G|---------------------------------------------|

D|------------------------------------------2--|

A|------------------------------------------2--|

E|------------------------------------------0--|

 

 

Solo #2:

 

e|---------------------------------------------------------------|

B|---------------------------------------------------------------|

G|---------------------------------------------------------------|

D|--4--4---4---4--4--4--4---7--7---4--4---4---4--4--4--4---7--7--|

A|--4--4---4---4--4--4--4---7--7---4--4---4---4--4--4--4---7--7--|

E|--2--2---0---2--2--2--2---5--5---2--2---0---2--2--2--2---5--5--|

 

e|--------------------------------------------------------------------------------|

B|--------------------------------------------------------------------------------|

G|--------------------------------------------------------------------------------|

D|--4--4---4---4--4--4--4---7--7---9---x--7---x--6---x--7---x--6---2----4---4--4--|

A|--4--4---4---4--4--4--4---7--7---9---x--7---x--6---x--7---x--6---2----4---4--4--|

E|--2--2---0---2--2--2--2---5--5---7---x--5---x--4---x--5---x--4---0----2---2--2--|

 

 

©2019 by Fefe - Tron544

Sigueme en:

  • YouTube - White Circle
  • Facebook - White Circle
  • Instagram - White Circle
  • Twitter - White Circle
This site was designed with the
.com
website builder. Create your website today.
Start Now