~ ASTERISK ~

TABLATURAS ~ By Fefe - Tron544

 

Intro:

 

GUITAR 1:

 

e|-----------1---------------------1-----------|

B|-----1--------1-----1------1--------1-----1--|

G|--2-----2--------2------0-----0--------0-----|

D|---------------------------------------------|

A|---------------------------------------------|

E|---------------------------------------------|

 

GUITAR 2:

 

e|----------------------------------------|

B|----------------------------------------|

G|--9--------------9----------------------|

D|-----12--10--10-----12--10--10------10--|

A|--------------------------------12------|

E|----------------------------------------|

 

GUITAR 3:

 

e|------------|

B|------------|

G|------------|

D|--3------5--|

A|--3------5--|

E|--1------3--|

 

GUITAR 1:

 

e|-----------3---------------------3-----------|

B|-----1--------1-----1------1--------1-----1--|

G|--2-----2--------2------2-----2--------2-----|

D|---------------------------------------------|

A|---------------------------------------------|

E|---------------------------------------------|

 

GUITAR 2:

 

e|----------------------------|

B|----------------------------|

G|--9--------------9----------|

D|-----12--10--10-----12--10--|

A|----------------------------|

E|----------------------------|

 

GUITAR 3:

 

e|------------|

B|------------|

G|------------|

D|--7------7--|

A|--7------7--|

E|--5------5--|

 

GUITAR 1:

 

e|-----------1---------------------1---------------------3------------------3--------3--|

B|-----1--------1-----1------1--------1-----1------1--------1-----1------1--------1-----|

G|--2-----2--------2------0-----0--------0------2-----2--------2------2--------2--------|

D|--------------------------------------------------------------------------------------|

A|--------------------------------------------------------------------------------------|

E|--------------------------------------------------------------------------------------|

 

GUITAR 2:

 

e|------------------------------------------------------------------|

B|------------------------------------------------------------------|

G|--9--------------9----------------------9--------------9----------|

D|-----12--10--10-----12--10--10------10-----12--10--10-----12--10--|

A|--------------------------------12--------------------------------|

E|------------------------------------------------------------------|

 

GUITAR 3:

 

e|--------------------------|

B|--------------------------|

G|--------------------------|

D|--3------5------7------7--|

A|--3------5------7------7--|

E|--1------3------5------5--|

 

GUITAR 1:

 

e|-----------------------------------------------------------------------------------------------------------|

B|-----------------------------------------------------------------------------------------------------------|

G|--4-/-5--5--5--5--5--5--5-/-7--7-\-5--5-/-9--9-\-4---4-/-5--5--5--5--5--5--5-/-12--12-\-10--10-\-9--9-\-4--|

D|-----------------------------------------------------------------------------------------------------------|

A|--2-/-3--3--3--3--3--3--3-/-5--5-\-3--3-/-7--7-\-2---2-/-3--3--3--3--3--3--3-/-10--10-\-8---8--\-7--7-\-2--|

E|-----------------------------------------------------------------------------------------------------------|

 

GUITAR 3:

 

e|-----------------------------------------------------------------------------|

B|-----------------------------------------------------------------------------|

G|-----------------------------------------------------------5--5--5--5--5--5--|

D|--3--3--3--3--3--3---5--5--5--5--5--5---7--7--7--7--7--7---5--5--5--5--5--5--|

A|--3--3--3--3--3--3---5--5--5--5--5--5---7--7--7--7--7--7---3--3--3--3--3--3--|

E|--1--1--1--1--1--1---3--3--3--3--3--3---5--5--5--5--5--5---------------------|

 

GUITAR 1:

 

e|------------------------------------------------------------------------------|

B|------------------------------------------------------------------------------|

G|--4-/-5--5--5--5--5--5--5-/-7--7-\-5--5-/-9--9-\-4---4-/-5--5--5--5--5--5--5--|

D|------------------------------------------------------------------------------|

A|--2-/-3--3--3--3--3--3--3-/-5--5-\-3--3-/-7--7-\-2---2-/-3--3--3--3--3--3--3--|

E|------------------------------------------------------------------------------|

 

GUITAR 3:

 

e|--------------------------------------------------------------|

B|--------------------------------------------------------------|

G|--------------------------------------------------------------|

D|--3--3--3--3--3--3---5--5--5--5--5--5---7--7--7--7--7--7---7--|

A|--3--3--3--3--3--3---5--5--5--5--5--5---7--7--7--7--7--7---7--|

E|--1--1--1--1--1--1---3--3--3--3--3--3---5--5--5--5--5--5---5--|

 

 

Verse/Estrofa: x2

 

e|-----------0--------------0--------------0--------------0--------------0--------------3-----------|

B|-----1--3-----1-----1--3-----1-----1--3-----1-----1--3-----1-----1--3-----1-----1--3-----1--------|

G|--2--------------2--------------2--------------2--------------2--------------2--------------2--2--|

D|--------------------------------------------------------------------------------------------------|

A|--------------------------------------------------------------------------------------------------|

E|--------------------------------------------------------------------------------------------------|

 

 

Pre-Chorus/Pre-Estribillo:

 

GUITAR 1:

 

e|-----------------------------------------|--3--------3--------3-----|

B|-----------------------------------------|-----1--------1--------1--|

G|----------------------7--7--7------------|--------0--------0--------|

D|--3--3--3---2--2--2---7--7--7---5--5--5--|--------------------------|

A|--3--3--3---2--2--2---5--5--5---5--5--5--|--------------------------|

E|--1--1--1---0--0--0-------------3--3--3--|--------------------------|

 

GUITAR 3:

 

e|-----------------------------------------|

B|-----------------------------------------|

G|----------------------7--7--7------------|

D|--3--3--3---2--2--2---7--7--7---5--5--5--|

A|--3--3--3---2--2--2---5--5--5---5--5--5--|

E|--1--1--1---0--0--0-------------3--3--3--|

 

 

Chorus/Estribillo:

 

GUITAR 1:

 

  /~~~~~~~~~~~~~~~~~~~( REPEAT x3 / REPITE x3 )~~~~~~~~~~~~~~~~~~~\

e|-----------------------------------------------------------------|

B|--8--8------------8--8------------8--8------------8--8-----------|

G|--------5--4------------5--4------------5--4------------5--4-----|

D|--------------5---------------5---------------5---------------5--|

A|-----------------------------------------------------------------|

E|-----------------------------------------------------------------|

 

GUITAR 2:

 

  /~~~~~~~~~~~~~~~~~~~~( REPEAT x3 / REPITE x3 )~~~~~~~~~~~~~~~~~~~\

e|------------------------------------------------------------------|

B|------------------------------------------------------------------|

G|--9--------------9----------------------9--------------9----------|

D|-----12--10--10-----12--10--10------10-----12--10--10-----12--10--|

A|--------------------------------12--------------------------------|

E|------------------------------------------------------------------|

 

GUITAR 3:

 

  /~~~~~~~~~~~~~~~~~~~~~~~~~( REPEAT x3 / REPITE x3 )~~~~~~~~~~~~~~~~~~~~~~~~~\

e|-----------------------------------------------------------------------------|

B|-----------------------------------------------------------------------------|

G|-----------------------------------------------------------------------------|

D|--3--3--3--3--3--3---5--5--5--5--5--5---7--7--7--7--7--7---7--7--7--7--7--7--|

A|--3--3--3--3--3--3---5--5--5--5--5--5---7--7--7--7--7--7---7--7--7--7--7--7--|

E|--1--1--1--1--1--1---3--3--3--3--3--3---5--5--5--5--5--5---5--5--5--5--5--5--|

 

GUITAR 1:

 

e|---------------------------------|

B|--8--8------------8--8-----------|

G|--------5--4------------5--4-----|

D|--------------5---------------5--|

A|---------------------------------|

E|---------------------------------|

 

GUITAR 2:

 

e|------------------------------------------------------------------|

B|------------------------------------------------------------------|

G|--9--------------9----------------------9--------------9----------|

D|-----12--10--10-----12--10--10------10-----12--10--10-----12--10--|

A|--------------------------------12--------------------------------|

E|------------------------------------------------------------------|

 

GUITAR 3:

 

e|---------------------------------------|

B|---------------------------------------|

G|---------------------------------------|

D|--3--3--3--3--3--3---5--5--5--5--5--5--|

A|--3--3--3--3--3--3---5--5--5--5--5--5--|

E|--1--1--1--1--1--1---3--3--3--3--3--3--|

 

GUITAR 1:

 

e|---------------------------------|-----|

B|--8--8------------8--8-----------|-----|

G|--------5--4------------5--4-----|-----|

D|--------------5---------------5--|--3--|

A|---------------------------------|--3--|

E|---------------------------------|--1--|

 

GUITAR 2:

 

e|---------------------------------------------------------------|

B|---------------------------------------------------------------|

G|--9--------------9---------------9--------------9--------------|

D|-----12--10--10-----12--10--10------12--10--10-----12--10--10--|

A|---------------------------------------------------------------|

E|---------------------------------------------------------------|

 

GUITAR 3:

 

e|---------------------------------------|-----|

B|---------------------------------------|-----|

G|---------------------------------------|-----|

D|--7--7--7--7--7--7---7--7--7--7--7--7--|--3--|

A|--7--7--7--7--7--7---7--7--7--7--7--7--|--3--|

E|--5--5--5--5--5--5---5--5--5--5--5--5--|--1--|

Asterisk - Tron544
00:00 / 00:00

©2019 by Fefe - Tron544

Sigueme en:

  • YouTube - White Circle
  • Facebook - White Circle
  • Instagram - White Circle
  • Twitter - White Circle
This site was designed with the
.com
website builder. Create your website today.
Start Now