~ ASPHYXIA ~

TABLATURAS ~ By Fefe - Tron544

 

Intro:

GUITAR (Vocals):

e|--11--8--8-------------------------11--8--|
B|------------11--9--8------------9---------|
G|----------------------8--8--10------------|
D|------------------------------------------|
A|------------------------------------------|
E|------------------------------------------|

e|--8--9--9-/-11--8----------------------------|

B|-------------------11--9---9--8----------10--|

G|---------------------------------10--7-------|

D|---------------------------------------------|

A|---------------------------------------------|

E|---------------------------------------------|

GUITAR (Rhythm):

e|------------------------------------------------------------------------------------------------|
B|------------------------------------------------------------------------------------------------|
G|--7---7---7-9---9-10---10-5---5---5-9---9-6---6--7---7---7-9---9-10---10-5---5---5-9---9-6---6--|
D|------------------------------------------------------------------------------------------------|
A|--5---5---5-7---7-8----8--3---3---3-7---7-4---4--5---5---5-7---7-8----8--3---3---3-7---7-4---4--|
E|------------------------------------------------------------------------------------------------|

GUITAR (Vocals):

e|--10-------------------------------------10----------------------15-12---------------|
B|------13-------------------------------------13-------------------------15-14--------|
G|------------12---12-------9----------9-------------12---12--------------------15-14--|
D|---------------------10------10--12-------------------------10-----------------------|
A|-------------------------------------------------------------------------------------|
E|-------------------------------------------------------------------------------------|

GUITAR (Rhythm):

e|-------------------------------------------------------------------------------------|
B|-------------------------------------------------------------------------------------|
G|--7---7---7-9---9-10---10-5---5---5-9---9-6---6-7---7---7-6---6---6-5---5---5--------|
D|------------------------------------------------------------------------------7---7--|
A|--5---5---5-7---7-8----8--3---3---3-7---7-4---4-5---5---5-4---4---4-3---3---5--------|
E|------------------------------------------------------------------------------5---5--|

GUITAR (Vocals):

e|--10-------------------------------------10--------------------13------------------------|
B|------13-------------------------------------13-----------10-----------------------------|
G|------------12---12-------9----------9-----------------------------14--\-12-p-10------9--|
D|---------------------10------10--12---------------12--11--------------------------12-----|
A|-----------------------------------------------------------------------------------------|
E|-----------------------------------------------------------------------------------------|


Verse/Estrofa:

GUITAR (Vocals):

e|---------------------------------10-/-12-b---12----------------------------------|
B|------13/15--13--10------------------------------10-------13--11--10-------------|
G|---------------------12--10--9------------------------12--------------9----------|
D|--12---------------------------------------------------------------------12--12--|
A|---------------------------------------------------------------------------------|
E|---------------------------------------------------------------------------------|

e|--10--------------------------------------------------------------------|
B|------13--10------------------------------------------------------------|
G|--------------12--10--9--9-h-10---------------9------9-------9--9-h-12--|
D|----------------------------------10------10-----12------12-------------|
A|--------------------------------------12--------------------------------|
E|------------------------------------------------------------------------|

 


Pre-Chorus/Pre-Estribillo:

GUITAR (Rhythm):

e|--13--12------------------12-------------------------------------------------------------12--|
B|--------------13--11--10----------13-------------------10--------------------10------10------|
G|----------12------------------12------12--10--9---10--------12---9-------10------10----------|
D|---------------------------------------------------------------------12----------------------|
A|---------------------------------------------------------------------------------------------|
E|---------------------------------------------------------------------------------------------|

GUITAR (Vocals):

e|-------------------------------------------------------------------------------------|
B|------10------13---------------10----------------------------------------------------|
G|--10------12------12---10--12------12--12--10------------9--10---9-------------------|
D|-----------------------------------------------10----12-------------12--10--10-/-12--|
A|-------------------------------------------------------------------------------------|
E|-------------------------------------------------------------------------------------|

 


Chorus/Estrofa:

GUITAR (Rhythm):

e|-----------------5--5---5--5--6--5--5--5--|
B|--3--3---5---5---6--6---6--6--6--6--6--6--|
G|--2--2---5---6---7--7---5--5--5--5--5--5--|
D|--3--3---5---5----------------------------|
A|------------------------------------------|
E|------------------------------------------|

GUITAR (Vocals):

e|--12-/-13---12---------12-/-13---12---------------|
B|-----------------13-------------------10----------|
G|------------------------------------------12--10--|
D|--------------------------------------------------|
A|--------------------------------------------------|
E|--------------------------------------------------|

GUITAR (Rhythm):

e|-----------------5---5---5---5--|
B|--3--3---5---5---6---6---6---6--|
G|--2--2---5---6---7---6---5---4--|
D|--3--3---5---5------------------|
A|--------------------------------|
E|--------------------------------|

GUITAR (Vocals):

e|----------------------------------10--------12-/-13--|
B|----------10--13--10------------------13-------------|
G|--10--12--------------12--10--12---------------------|
D|-----------------------------------------------------|
A|-----------------------------------------------------|
E|-----------------------------------------------------|

GUITAR (Rhythm):

e|-----------------5--5---5--5--6--5--5--5--|
B|--3--3---5---5---6--6---6--6--6--6--6--6--|
G|--2--2---5---6---7--7---5--5--5--5--5--5--|
D|--3--3---5---5----------------------------|
A|------------------------------------------|
E|------------------------------------------|

GUITAR (Vocals):

e|--12-/-13---12-------------12-/-13---12---13--------------|
B|-----------------13--13-----------------------10----------|
G|--------------------------------------------------12--10--|
D|----------------------------------------------------------|
A|----------------------------------------------------------|
E|----------------------------------------------------------|

GUITAR (Rhythm):

e|-----------------5--5--6--5--5--5---5--5--6--5--5--5--|
B|--3--3---5---5---6--6--6--6--6--6---6--6--6--6--6--6--|
G|--2--2---5---5---5--5--5--5--5--5---5--5--5--5--5--5--|
D|--3--3---5---5----------------------------------------|
A|------------------------------------------------------|
E|------------------------------------------------------|

GUITAR (Vocals):

e|----------------------------------------------------------|
B|--10------10------10--13--10------------------------------|
G|--------------12--------------12--10--10----12/14\12--10--|
D|------12--------------------------------------------------|
A|----------------------------------------------------------|
E|----------------------------------------------------------|

GUITAR (Rhythm):

e|-----------------5--5---5--5--6--5--5--5--|
B|--3--3---5---5---6--6---6--6--6--6--6--6--|
G|--2--2---5---6---7--7---5--5--5--5--5--5--|
D|--3--3---5---5----------------------------|
A|------------------------------------------|
E|------------------------------------------|

GUITAR (Vocals):

e|--12-/-13---12---------12-/-13---12---------------|
B|-----------------13-------------------10----------|
G|------------------------------------------12--10--|
D|--------------------------------------------------|
A|--------------------------------------------------|
E|--------------------------------------------------|

GUITAR (Rhythm):

e|-----------------5---5---5---5--|
B|--3--3---5---5---6---6---6---6--|
G|--2--2---5---6---7---6---5---4--|
D|--3--3---5---5------------------|
A|--------------------------------|
E|--------------------------------|

GUITAR (Vocals):

e|------------------------------10--------12-/-13--|
B|----------10--13--10--------------13-------------|
G|--10--12--------------12--10---------------------|
D|-------------------------------------------------|
A|-------------------------------------------------|
E|-------------------------------------------------|

GUITAR (Rhythm):

e|-----------------5--5---5--5--6--5--5--5--|
B|--3--3---5---5---6--6---6--6--6--6--6--6--|
G|--2--2---5---6---7--7---5--5--5--5--5--5--|
D|--3--3---5---5----------------------------|
A|------------------------------------------|
E|------------------------------------------|

GUITAR (Vocals):

e|--12-/-13---12-------------12-/-13---12---13--------------|
B|-----------------13--13-----------------------10----------|
G|--------------------------------------------------12--10--|
D|----------------------------------------------------------|
A|----------------------------------------------------------|
E|----------------------------------------------------------|

GUITAR (Rhythm):

e|-----------------5--5--6--5--5--5---5--5--6--5--5--5--|
B|--3--3---5---5---6--6--6--6--6--6---6--6--6--6--6--6--|
G|--2--2---5---5---5--5--5--5--5--5---5--5--5--5--5--5--|
D|--3--3---5---5----------------------------------------|
A|------------------------------------------------------|
E|------------------------------------------------------|

GUITAR (Vocals):

e|------------------------------------------|
B|----------10--13--10----------------------|
G|--10--12--------------12--10--12--10--10--|
D|------------------------------------------|
A|------------------------------------------|
E|------------------------------------------|

GUITAR (Rhythm):

e|--5--5--5--5--5--5---7--7--7--7--7--7--|
B|--6--6--6--6--6--6---6--6--6--6--6--6--|
G|--5--5--5--5--5--5---5--5--5--5--5--5--|
D|---------------------------------------|
A|---------------------------------------|
E|---------------------------------------|

GUITAR (Vocals):

e|---------------------------------------------------------|
B|----------10--13--10----------------------------11-/-13--|
G|--10--12--------------12--10--12--10--12-/-14------------|
D|---------------------------------------------------------|
A|---------------------------------------------------------|
E|---------------------------------------------------------|

 

 

asphyxia - Tron544
00:00 / 00:00

©2019 by Fefe - Tron544

Sigueme en:

  • YouTube - White Circle
  • Facebook - White Circle
  • Instagram - White Circle
  • Twitter - White Circle
This site was designed with the
.com
website builder. Create your website today.
Start Now