ASHITA WA ATASHI NO KAZE GA FUKU

DIGIMON ADVENTURE 02

CHORDS ~ By Fefe (Tron544)

 

Chords used/Acordes utilizados:

Ab: 4.6.6.5.4.4
Bb: 6.8.8.7.6.6
C: 8.10.10.9.8.8  -  Csus4: 8.10.10.10.8.8 
Cm: x.3.5.5.4.3  -  C5: x.3.5.5.x.x
Db: x.4.6.6.6.4
Eb: x.6.8.8.8.6
Fm: 1.3.3.1.1.1  -  F5: 1.3.3.x.x.x
G: 3.5.5.4.3.3  -  Gm: 3.5.5.3.3.3
%: Same as the previous measure/Lo mismo al compas anterior

 

| F5 | % | C5 | % |

 


          F5
   Chotto matte mite dare datte
C5
   Kinou to maru de chigau
          F5
   Chotto mite mite yokogao no
C5
   Shiruetto mo otona sa
          F5
   Chotto kimi kimi iiwake wo
C5
   Shitai kimochi mo wakaru
         F5
   Datte yo no naka kore ja
C5
   Maru de natte nai jan

 


         Ab      Bb      Csus4   C
   Da ne... Kimochi ii kuuki wo
       Ab    Bb       Eb             G
   Ima... Suitekute shou ga nai shou ga nai

 


          Eb        Ab         Bb        G
   Ashita wa atashi no kaze ga fuku kara ne
       Cm      Fm     Db      Bb
   Sekaijuu no doa akete oite hoshii
          Eb        Ab         Bb        G
   Ashita wa atashi no kaze ga fuku kara ne
        Ab          Gm      Cm
   Kimi no sono yowamushi wo
      Fm        G         C5    F5
   Mouretsu ni... Fukitobasu yo
C5     F5     C5   F5
   Goojasu na
C5    F5     Eb   Db   C
   Jinsei wo

Ashita wa Atashi no Kaze ga Fuku - Tron544
00:00 / 00:00
DONATE%20BUTTON%20(EN)_edited.png

TABS ~ By Fefe (Tron544)

 

Verse/Estrofa:

e|----------|---------------------------------------------------------------------|
B|----------|---------------------------------------------------------------------|
G|--12--10--|--12---------------12-------------------------------8-8------12--10--|
D|----------|------10--8-10--10----10-8-10------8-10-8-8-10-10-8------10----------|
A|----------|---------------------------------------------------------------------|
E|----------|---------------------------------------------------------------------|

e|----------------------------------------------------------------------|
B|----------------------------------------------------------------------|
G|--12---------------12--------------8-8------------------------12--10--|
D|------10--8-10--10----10-8-10----------10-8-10-10----8-8--10----------|
A|--------------------------------------------------10------------------|
E|----------------------------------------------------------------------|

e|---------------------------------------------------------------------|
B|---------------------------------------------------------------------|
G|--12---------------12-------------------------------8-8------12--10--|
D|------10--8-10--10----10-8-10------8-10-8-8-10-10-8------10----------|
A|---------------------------------------------------------------------|
E|---------------------------------------------------------------------|

e|----------------------------------------------------------------------|
B|----------------------11----------------------------------------------|
G|--12---------------12-----10/12-----------------------8-8-------------|
D|------10--8-10--10-------------------8-10-8----8-10-8------10---8-10--|
A|--------------------------------------------10------------------------|
E|----------------------------------------------------------------------|

 


Pre-Chorus/Pre-Estribillo:

e|--------------------------------------------------|
B|--------------------------------------------------|
G|------12--12--10--8--7--8-7--\5-5-----------------|
D|--------------------------------------------8-10--|
A|--------------------------------------------------|
E|--------------------------------------------------|

e|----------------------------------------------------------------|
B|----------------------------------------------------------------|
G|------12--12--10--8--10--8-10--/12-12---8-8-10--/12-12---8-8-7--|
D|----------------------------------------------------------------|
A|----------------------------------------------------------------|
E|----------------------------------------------------------------|

 


Chorus/Estribillo:

e|-----------------------------------------------------------|
B|----------11-11---9--8-------------------------------------|
G|--8--7-8----------------8--10--8-10--/12-12------10--12-8--|
D|-----------------------------------------------------------|
A|-----------------------------------------------------------|
E|-----------------------------------------------------------|

e|-----------------------------------------------------------------|
B|-------------13--------------------------------------------------|
G|------10--12-----12----12-12-12/13--13--10--8--8--10-10---8-8-7--|
D|-----------------------------------------------------------------|
A|-----------------------------------------------------------------|
E|-----------------------------------------------------------------|

e|-------------------------------------------------------|
B|----------11-11---9--8---------------------------8--9--|
G|--8--7-8----------------8--10--8-10--/12-12------------|
D|-------------------------------------------------------|
A|-------------------------------------------------------|
E|-------------------------------------------------------|

e|---------------------------------------------------------------|
B|--11-------8-9-11--------------8-9-8---------------------------|
G|------8-8----------8-8----8-10---------------10-10-8-10/12-10--|
D|---------------------------------------------------------------|
A|---------------------------------------------------------------|
E|---------------------------------------------------------------|

e|-------------------------------------------------------------------------------|
B|---------------------11----10---8---10--------------------11----10---8---10----|
G|---8---------------------------------------------------------------------------|
D|-------------------------------------------------------------------------------|
A|-------------------------------------------------------------------------------|
E|-------------------------------------------------------------------------------|

©2015 by Fefe - Tron544

Sigueme en:

  • YouTube - White Circle
  • Facebook - White Circle
  • Instagram - White Circle
  • Twitter - White Circle
This site was designed with the
.com
website builder. Create your website today.
Start Now