ANIMA

SWORD ART ONLINE: ALICIZATION - WAR OF UNDERWORLD

TABS ~ By Fefe (Tron544)

 

Intro:

GUITAR (Vocals):

eb|----------------|-----------------------------------------------------|
Bb|-----15--13/15--|----12---------------------15--13/15---12------------|
Gb|--12------------|--------14p12-14/16-----12-----------------14p12-12--|
Db|----------------|-----------------------------------------------------|
Ab|----------------|-----------------------------------------------------|
Eb|----------------|-----------------------------------------------------|

GUITAR (Rhythm):

eb|-----------------------------------------------------------------|
Bb|-------3--------3------------------------------------------------|
Gb|-----0--------0---------(5)-x-x-(7)-x-x-9---9--9-9-9--9--9-9-9---|
Db|------------------------(5)-x-x-(7)-x-x-9---9--9-9-9--9--9-9-9---|
Ab|--0--------2------------(3)-x-x-(5)-x-x-7---7--7-7-7--7--7-7-7---|
Eb|-----------------------------------------------------------------|

GUITAR (Lead):

eb|------------14------------------------------------------------------|
Bb|--15---15--------15---------------------------10---8-----7---8-10---|
Gb|--------------------------(5)-x-x-(7)-x-x-9-------------------------|
Db|--------------------------(5)-x-x-(7)-x-x-9-----------9-------------|
Ab|--------------------------(3)-x-x-(5)-x-x-7-------------------------|
Eb|--------------------------------------------------------------------|

GUITAR (Rhythm):

eb|----------------------------------------------------------|
Bb|----------------------------------------------------------|
Gb|-------------5----5--5-5-5-5-7--7-7-7-7-------------------|
Db|--2--2-2-2-2-5----5--5-5-5-5-7--7-7-7-7-5---5-5--4-4-4-4--|
Ab|--2--2-2-2-2-3----3--3-3-3-3-5--5-5-5-5-5---5-5--5-5-5-5--|
Eb|--0--0-0-0-0----------------------------3---3-3--2-2-2-2--|

GUITAR (Lead):

eb|-------------------------------------------------------------------------|
Bb|--15--12-------------------------15--12---------------------13-12--------|
Gb|----------14--12----11--12-/14-----------14p12-14/16----16--------14-12--|
Db|-------------------------------------------------------------------------|
Ab|-------------------------------------------------------------------------|
Eb|-------------------------------------------------------------------------|

GUITAR (Rhythm):

eb|------------------------------------------------------|
Bb|------------------------------------------------------|
Gb|-------------5----5--5-5-5-5-7--#-7--#-8----8/9--8----|
Db|--2--2-2-2-2-5----5--5-5-5-5-7--#-7--#-7--------------|
Ab|--2--2-2-2-2-3----3--3-3-3-3-5--#-5--#-6--------------|
Eb|--0--0-0-0-0------------------------------------------|

GUITAR (Lead):

eb|-----------------------------------------------------------|
Bb|--15--12-------------------------15---12-------------------|
Gb|----------14--12----11--12-/14-------------14----12--11----|
Db|-----------------------------------------------------------|
Ab|-----------------------------------------------------------|
Eb|-----------------------------------------------------------|

 


Verse/Estrofa:

GUITAR (Vocals):

eb|----------|--------------------------------------------------------|
Bb|----------|--------------------------------------------------------|
Gb|-------8--|--9---8-9---8-9---8-----8-9---8-9---8-9--8-9--11--9/11--|
Db|--9-9-----|--------------------9-----------------------------------|
Ab|----------|--------------------------------------------------------|
Eb|----------|--------------------------------------------------------|

GUITAR (Rhythm):

eb|--------------------------------------------------------------|
Bb|--------------------------------------------------------------|
Gb|--6--x-x-x-x-x-x-x-x-x-x-x-x-6--2--x-x-x-x-x-x-x-x-x-x-x-x-2--|
Db|--6--x-x-x-x-x-x-x-x-x-x-x-x-6--2--x-x-x-x-x-x-x-x-x-x-x-x-2--|
Ab|--4--x-x-x-x-x-x-x-x-x-x-x-x-4--0--x-x-x-x-x-x-x-x-x-x-x-x-0--|
Eb|--------------------------------------------------------------|

GUITAR (Vocals):

eb|---------------------------------------------------|
Bb|------------12-------------------------------------|
Gb|----------9-----9-9--11--9/11-------9-8---------8--|
Db|-------------------------------------------9-9-----|
Ab|---------------------------------------------------|
Eb|---------------------------------------------------|

GUITAR (Rhythm):

eb|-------------------------------------------------------|
Bb|-------------------------------------------------------|
Gb|--------------------------------4--x-x-x-x-x-4---------|
Db|--2--x-x-x-x-x-x-x-x-x-x-x-x-2--4--x-x-x-x-x-4---------|
Ab|--2--x-x-x-x-x-x-x-x-x-x-x-x-2--2--x-x-x-x-x-2---------|
Eb|--0--x-x-x-x-x-x-x-x-x-x-x-x-0-------------------------|

GUITAR (Vocals):

eb|--------------------------------------------------------|
Bb|--------------------------------------------------------|
Gb|--9---8-9---8-9---8-----8-9---8-9---8-9--8-9--11--9/11--|
Db|--------------------9-----------------------------------|
Ab|--------------------------------------------------------|
Eb|--------------------------------------------------------|

GUITAR (Rhythm):

eb|--------------------------------------------------------------|
Bb|--------------------------------------------------------------|
Gb|--6--x-x-x-x-x-6-x-x-x-x-x-x-6--2--x-x-x-x-x-2-x-x-x-x-x-x-2--|
Db|--6--x-x-x-x-x-6-x-x-x-x-x-x-6--2--x-x-x-x-x-2-x-x-x-x-x-x-2--|
Ab|--4--x-x-x-x-x-4-x-x-x-x-x-x-4--0--x-x-x-x-x-0-x-x-x-x-x-x-0--|
Eb|--------------------------------------------------------------|

GUITAR (Lead):

eb|--4------------------0----------------|
Bb|--5--------5---------0----------------|
Gb|--4-------------4----2----------------|
Db|--6------------------2----------------|
Ab|--4------------------0----------------|
Eb|--------------------------------------|

GUITAR (Vocals):

eb|-------------------------------------------------|
Bb|------------12-----------------------------------|
Gb|----------9-----9-9--11--9/11-------------9--11--|
Db|-------------------------------------------------|
Ab|-------------------------------------------------|
Eb|-------------------------------------------------|

GUITAR (Rhythm):

eb|-----------------------------------------------------------|
Bb|-----------------------------------------------------------|
Gb|--------------------------------4--x-x-x-x-x-4---4--4-4-4--|
Db|--2--x-x-x-x-x-2-x-x-x-x-x-x-2--4--x-x-x-x-x-4---4--4-4-4--|
Ab|--2--x-x-x-x-x-2-x-x-x-x-x-x-2--2--x-x-x-x-x-2---2--2-2-2--|
Eb|--0--x-x-x-x-x-0-x-x-x-x-x-x-0-----------------------------|

GUITAR (Lead):

eb|--0----------------2----------------|
Bb|--0----------------4----------------|
Gb|--1----------------4----------------|
Db|--2----------------4----------------|
Ab|--2----------------2----------------|
Eb|--0---------------------------------|

ANIMA - Tron544
00:00 / 00:00
DONATE%20BUTTON%20(EN)_edited.png

Pre-Chorus/Pre-Estribillo:

GUITAR (Vocals):

eb|-----------------------------------------------------|
Bb|--9--9--9--9h10--------------------------------------|
Gb|-------------------7/9--9--7--6--7--9--7------9--11--|
Db|-----------------------------------------------------|
Ab|-----------------------------------------------------|
Eb|-----------------------------------------------------|

GUITAR (Rhythm):

eb|--------------------------------------------|
Bb|--------------------------------------------|
Gb|--2-2-----4-4-----4----6-6-----6-6-----6----|
Db|--2-2-----4-4-----4----6-6-----6-6-----6----|
Ab|--0-0-----2-2-----2----4-4-----4-4-----4----|
Eb|--------------------------------------------|

GUITAR (Lead):

eb|---------------------------------------------------------------------------------------------------|
Bb|--(5)-x-(4)-x-------(5)-x-(4)-x-------(5)-x-(4)-x-(5)-x-(4)-x-------(5)-x-(4)-x-------(5)-x-(4)-x--|
Gb|--(6)-x-(4)-x-(4)-x-(6)-x-(4)-x-(4)-x-(6)-x-(4)-x-(6)-x-(4)-x-(4)-x-(6)-x-(4)-x-(4)-x-(6)-x-(4)-x--|
Db|--------------(6)-x-------------(6)-x-------------------------(6)-x-------------(6)-x--------------|
Ab|---------------------------------------------------------------------------------------------------|
Eb|---------------------------------------------------------------------------------------------------|

GUITAR (Vocals):

eb|----------------------------------------------|
Bb|--9--9--9--10/12------------------------------|
Gb|--------------------7--7--7------------9--11--|
Db|----------------------------------------------|
Ab|----------------------------------------------|
Eb|----------------------------------------------|

GUITAR (Rhythm):

eb|----------------------------------------------|
Bb|----------------------------------------------|
Gb|--2-2-----4-4-----4----6---8---9---11---13----|
Db|--2-2-----4-4-----4----6---9---9---11---13----|
Ab|--0-0-----2-2-----2----4---6---7---9----11----|
Eb|----------------------------------------------|

GUITAR (Lead):

eb|----------------------------------------------------------------------------------|
Bb|--(5)-x-(4)-x-------(5)-x-(4)-x-------(5)-x-(4)-x---------------------------------|
Gb|--(6)-x-(4)-x-(4)-x-(6)-x-(4)-x-(4)-x-(6)-x-(4)-x-9-9-9-8-8-8-11-11-11-9-9-9-9----|
Db|--------------(6)-x-------------(6)-x---------------------------------------------|
Ab|--------------------------------------------------7-7-7-6-6-6-9--9--9--7-7-7-7----|
Eb|----------------------------------------------------------------------------------|

GUITAR (Vocals):

eb|----------------------------------------------------|
Bb|--9--9--9--9h10-------------------------------------|
Gb|-------------------7/9--9--7--6--7--9--7---------8--|
Db|----------------------------------------------9-----|
Ab|----------------------------------------------------|
Eb|----------------------------------------------------|

GUITAR (Rhythm):

eb|--0------2-----------------4----------|
Bb|--2------4----------4------5----------|
Gb|--2------4----------5------4----------|
Db|--2------4----------6------6----------|
Ab|--0------2----------3------4----------|
Eb|--------------------------------------|

GUITAR (Lead):

eb|--12------11----------11------12----------|
Bb|--12------12----------9-------9-----------|
Gb|------------------------------------------|
Db|------------------------------------------|
Ab|------------------------------------------|
Eb|------------------------------------------|

GUITAR (Vocals):

eb|--------------------------------------|
Bb|------------------9---10--9------9-9--|
Gb|--9-------9-9--11---------------------|
Db|--------------------------------------|
Ab|--------------------------------------|
Eb|--------------------------------------|

GUITAR (Rhythm):

eb|---------------------------------------------------------------|
Bb|---------------------------------------------------------------|
Gb|---------------------------------------------------------------|
Db|--(4)-x-x-x-x-x-x-x-x-x-x-x-x-x-x-x--(4)-x-x-x-x-x-x-4---------|
Ab|--(4)-x-x-x-x-x-x-x-x-x-x-x-x-x-x-x--(4)-x-x-x-x-x-x-4---------|
Eb|--(2)-x-x-x-x-x-x-x-x-x-x-x-x-x-x-x--(4)-x-x-x-x-x-x-4---------|

GUITAR (Lead):

eb|-----------------------------------------------------------------------------|
Bb|------------------------------------------------------9----------------------|
Gb|--(9)-x-x-x-x-x-x-x-x-x-x-x-x-x-x-x-8-8-8-9-9-9-11-11-11b-11-11-11-11-11-11--|
Db|-----------------------------------------------------------------------------|
Ab|--(7)-x-x-x-x-x-x-x-x-x-x-x-x-x-x-x-6-6-6-7-7-7-9--9-------------------------|
Eb|-----------------------------------------------------------------------------|

 


Chorus/Estribillo:

GUITAR (Vocals):

eb|-------------|---------------------------------------------------------------------------------|
Bb|-------------|----------------------------------------------------------------------15--13/15--|
Gb|-----11--12--|---12-12-12-12--12-12-12--11--12-14--14/16--16-16-16-16-17--16-----12------------|
Db|--12---------|---------------------------------------------------------------------------------|
Ab|-------------|---------------------------------------------------------------------------------|
Eb|-------------|---------------------------------------------------------------------------------|

GUITAR (Rhythm):

eb|-----|----------------------------------------------------------|
Bb|-----|----------------------------------------------------------|
Gb|-----|---------------5--5--5-5-5-7--7-#-7--7-#------------------|
Db|--2--|---2-2--2--2-2-5--5--5-5-5-7--7-#-7--7-#-5--5-5--4-4-4-2--|
Ab|--2--|---2-2--2--2-2-3--3--3-3-3-5--5-#-5--5-#-5--5-5--5-5-5-2--|
Eb|--0--|---0-0--0--0-0---------------------------3--3-3--2-2-2-0--|

GUITAR (Vocals):

eb|---------------------------------------------------------------------|
Bb|----12----------------------15--13/15---12---------------------------|
Gb|--------14p12-14/16------12-----------------14p12-12---------11--12--|
Db|----------------------------------------------------------12---------|
Ab|---------------------------------------------------------------------|
Eb|---------------------------------------------------------------------|

GUITAR (Rhythm):

eb|---------------------------------------------------------|
Bb|---------------------------------------------------------|
Gb|------------5---5-5--5-5-5-5-7--7--7-7-------------------|
Db|---2-2--2-2-5---5-5--5-5-5-5-7--7--7-7-5---5-5--4-4-4-2--|
Ab|---2-2--2-2-3---3-3--3-3-3-3-5--5--5-5-5---5-5--5-5-5-2--|
Eb|---0-0--0-0----------------------------3---3-3--2-2-2-0--|

GUITAR (Vocals):

eb|---------------------------------------------------------------------------------|
Bb|----------------------------------------------------------------------15--13/15--|
Gb|---12-12-12-12--12-12-12--11--12-14--14/16--16-16-16-16-17--16-----12------------|
Db|---------------------------------------------------------------------------------|
Ab|---------------------------------------------------------------------------------|
Eb|---------------------------------------------------------------------------------|

GUITAR (Rhythm):

eb|----------------------------------------------------------|
Bb|----------------------------------------------------------|
Gb|---------------5--5--5-5-5-5-7--7-7-7-7-------------------|
Db|---2-2--2--2-2-5--5--5-5-5-5-7--7-7-7-7--5--5-5-4--4-4-4--|
Ab|---2-2--2--2-2-3--3--3-3-3-3-5--5-5-5-5--5--5-5-5--5-5-5--|
Eb|---0-0--0--0-0---------------------------3--3-3-2--2-2-2--|

GUITAR (Vocals):

eb|------------------------------------------------------------------------|
Bb|----12----------------------15--13/15---12-----------------------12/13--|
Gb|--------14p12-14/16------12-----------------14p12-12--------------------|
Db|---------------------------------------------------------10/12----------|
Ab|------------------------------------------------------------------------|
Eb|------------------------------------------------------------------------|

GUITAR (Rhythm):

eb|------------------------------------------------|
Bb|------------------------------------------------|
Gb|--2--x-x-x-x-4----x-x-4----5---7----------#-7---|
Db|--2--x-x-x-x-5----x-x-5----5---7---2------#-7---|
Ab|--0--x-x-x-x-2----x-x-2----3---5---2------#-5---|
Eb|-----------------------------------0------------|

GUITAR (Vocals):

eb|---------------------------------------------------------------------|
Bb|--12------12/13-12-------12/13-12--------------------------12/13-----|
Gb|----------------------------------------12/14-12---------------------|
Db|---------------------------------------------------10/12-------------|
Ab|---------------------------------------------------------------------|
Eb|---------------------------------------------------------------------|

GUITAR (Rhythm):

eb|----------------------------------------------------|
Bb|----------------------------------------------------|
Gb|--(5)--x-x-5----x--x-x-5----x--x-x-5----x--x-x-5----|
Db|--(5)--x-x-5----x--x-x-5----x--x-x-5----x--x-x-5----|
Ab|--(3)--x-x-3----x--x-x-3----x--x-x-3----x--x-x-3----|
Eb|----------------------------------------------------|

GUITAR (Vocals):

eb|-------------------------------------------------------------------------|
Bb|--12------12/13-12-------12/13-12--------------------------12/13---------|
Gb|----------------------------------------12/14-12-------------------------|
Db|---------------------------------------------------10/12-----------------|
Ab|-------------------------------------------------------------------------|
Eb|-------------------------------------------------------------------------|

GUITAR (Rhythm):

eb|-----------------------------------------------------|
Bb|-----------------------------------------------------|
Gb|-----------------------(7)--x--x--x--x--x-x-x-x-x-x--|
Db|------2----x--x-x-2----(7)--x--x--x--x--x-x-x-x-x-x--|
Ab|------2----x--x-x-2----(5)--x--x--x--x--x-x-x-x-x-x--|
Eb|------0----x--x-x-0----------------------------------|

©2015 by Fefe - Tron544

Sigueme en:

  • YouTube - White Circle
  • Facebook - White Circle
  • Instagram - White Circle
  • Twitter - White Circle
This site was designed with the
.com
website builder. Create your website today.
Start Now