~ ANGEL ~

TABLATURAS ~ By Fefe - Tron544

 

Intro:

 

GUITAR 1:

 

e|------------------------------3---------------------|

B|----5------------5-------------------------5--3-----|

G|-------4--5---------4--5---------4--5------------5--|

D|--------------3-------------------------------------|

A|--0-------------------------------------3-----------|

E|---------------------------3------------------------|

 

e|----------------------------|----------------------------|

B|----------------------------|----------------------------|

G|--2--2---#--#--#--#--#------|--5--5---#--#--#--#--#------|

D|--2--2---#--#--#--#--#---3--|--5--5---#--#--#--#--#---5--|

A|--0--0---#--#--#--#--#---3--|--3--3---#--#--#--#--#---5--|

E|-------------------------1--|-------------------------3--|

 

GUITAR 3:

 

  /~~~~~~~~~~~~~~~~~~( REPEAT x2 / REPITE x2 )~~~~~~~~~~~~~~~~~\

e|----------15------12------------------------------------------|

B|------------------------------15------13------12------13--12--|

G|--12--12------12------12--12------12------12------12----------|

D|--------------------------------------------------------------|

A|--------------------------------------------------------------|

E|--------------------------------------------------------------|

 

GUITAR 1:

 

e|------------------------|------------------------|-----------|

B|------------------------|------------------------|-----------|

G|--2--2--2---------------|--5--5--5---------------|--2--5--3--|

D|--2--2--2---3--3--3--3--|--5--5--5---5--5--5--5--|--2--5--3--|

A|--0--0--0---3--3--3--3--|--3--3--3---5--5--5--5--|--0--3--1--|

E|------------1--1--1--1--|------------3--3--3--3--|-----------|

 

GUITAR 3:

 

  /~~~~~~~~~~~~~~~~~~( REPEAT x2 / REPITE x2 )~~~~~~~~~~~~~~~~~\

e|----------15------12------------------------------------------|--------------|

B|------------------------------15------13------12------13--12--|--10--13--11--|

G|--12--12------12------12--12------12------12------12----------|--9---12--10--|

D|--------------------------------------------------------------|--7---10--8---|

A|--------------------------------------------------------------|--------------|

E|--------------------------------------------------------------|--------------|

 

 

Verse/Estrofa:

 

GUITAR 1:

 

e|--------------------------------------------|

B|--------------------------------------------|

G|--2--2---#--#---5--5------------------7--7--|

D|--2--2---#--#---5--5----5--5---#--#---7--7--|

A|--0--0---#--#---3--3----5--5---#--#---5--5--|

E|------------------------3--3---#--#---------|

 

GUITAR 2:

 

e|----------------------------------------------------------------------|

B|----------------------------------------------------------------------|

G|-----------------------------------------9--7-------------------------|

D|--10--7-----------9--10--9----------------------------------10--9--7--|

A|----------10--10------------10---10--10--------10---10--10------------|

E|----------------------------------------------------------------------|

 

GUITAR 3:

 

e|--14-b--14-b--------------|

B|--------------12--13------|

G|----------------------12--|

D|--------------------------|

A|--------------------------|

E|--------------------------|

 

GUITAR 1:

 

e|--------------------------------------------|

B|--------------------------------------------|

G|--2--2---#--#---5--5------------------7--7--|

D|--2--2---#--#---5--5----5--5---#--#---7--7--|

A|--0--0---#--#---3--3----5--5---#--#---5--5--|

E|------------------------3--3---#--#---------|

 

GUITAR 2:

 

e|-------------------------------------------------------------------------|

B|-------------------------------------------------------------------------|

G|-----------------------------------------9--7----------------------------|

D|--10--7-----------9--10--9----------------------------------9--10--9--7--|

A|----------10--10------------10---10--10--------10---10--10---------------|

E|-------------------------------------------------------------------------|

 

GUITAR 3:

 

e|---------------------------------------------------|

B|---------------------------------------------------|

G|--7-(H)--5-(H)--4-(H)--3-(H)--3-(H)--3-(H)--2-(H)--|

D|---------------------------------------------------|

A|---------------------------------------------------|

E|---------------------------------------------------|

 

GUITAR 1:

 

e|-----------------------------------------------------|

B|-----------------------------------------------------|

G|--2--2--2--2---5--5--5--5----------------7--7--7--7--|

D|--2--2--2--2---5--5--5--5---5--5--5--5---7--7--7--7--|

A|--0--0--0--0---3--3--3--3---5--5--5--5---5--5--5--5--|

E|----------------------------3--3--3--3---------------|

 

GUITAR 2:

 

e|-------------------------------------------------------------------------|

B|-------------------------------------------------------------------------|

G|-----------------------------------------9--7----------------------------|

D|--10--7-----------9--10--9----------------------------------9--10--9--7--|

A|----------10--10------------10---10--10--------10---10--10---------------|

E|-------------------------------------------------------------------------|

 

GUITAR 3:

 

e|-------------------------------------------------10--10--10--10--|

B|--10--10--10--10---13--13--13--13---8--8--8--8---10--10--10--10--|

G|--9---9---9---9----12--12--12--12---7--7--7--7---7---7---7---7---|

D|--7---7---7---7----10--10--10--10---5--5--5--5-------------------|

A|-----------------------------------------------------------------|

E|-----------------------------------------------------------------|

 

GUITAR 1:

 

e|-----------------------------------------------------|

B|-----------------------------------------------------|

G|--2--2--2--2---5--5--5--5----------------7--7--7--7--|

D|--2--2--2--2---5--5--5--5---5--5--5--5---7--7--7--7--|

A|--0--0--0--0---3--3--3--3---5--5--5--5---5--5--5--5--|

E|----------------------------3--3--3--3---------------|

 

GUITAR 2:

 

e|-------------------------------------------------------------------------|

B|-------------------------------------------------------------------------|

G|-----------------------------------------9--7----------------------------|

D|--10--7-----------9--10--9----------------------------------9--10--9--7--|

A|----------10--10------------10---10--10--------10---10--10---------------|

E|-------------------------------------------------------------------------|

 

GUITAR 3:

 

e|-------------------------------------------------10--10--10--10--|

B|--10--10--10--10---13--13--13--13---8--8--8--8---10--10--10--10--|

G|--9---9---9---9----12--12--12--12---7--7--7--7---7---7---7---7---|

D|--7---7---7---7----10--10--10--10---5--5--5--5-------------------|

A|-----------------------------------------------------------------|

E|-----------------------------------------------------------------|

 

 

Pre-Chorus/Pre-Estribillo:

 

GUITAR 1:

 

e|------------------------------------------------------------------------------------------------|

B|------------------------------------------------------------------------------------------------|

G|--------------------------2--2--5--7---2--2--2---2--2--2--------2--2--5--7---2--2--2---2--5--3--|

D|--(3)-x--3----(3)-x--3----2--2--5--7---2--2--2---2--2--2--------2--2--5--7---2--2--2---2--5--3--|

A|--(3)-x--3----(3)-x--3----0--0--3--5---0--0--0---0--0--0--------0--0--3--5---0--0--0---0--3--1--|

E|--(1)-x--1----(1)-x--1------------------------------------5-b-----------------------------------|

 

GUITAR 2:

 

e|------------------------------------------------------------------------|

B|-------------------------------------------------------8--10------------|

G|--------------------------------7--9-/-10--9--7-/-9-----------9--7------|

D|--10--10--9--7--9--10---10--10--------------------------------------10--|

A|------------------------------------------------------------------------|

E|------------------------------------------------------------------------|

 

GUITAR 3:

 

e|----------------------------------------|

B|--(6)-x--6----(6)-x--6------10--13--11--|

G|--(5)-x--5----(5)-x--5------9---12--10--|

D|--(3)-x--3----(3)-x--3------7---10--8---|

A|----------------------------------------|

E|----------------------------------------|

 

GUITAR 1:

 

e|------------------------------------------------------------------------------------------|

B|------------------------------------------------------------------------------------------|

G|--------------------------2--2--5--7---2--2--2---2--2--2--------2--2--5--7---2--2--2---5--|

D|--(3)-x--3----(3)-x--3----2--2--5--7---2--2--2---2--2--2--------2--2--5--7---2--2--2---5--|

A|--(3)-x--3----(3)-x--3----0--0--3--5---0--0--0---0--0--0--------0--0--3--5---0--0--0---3--|

E|--(1)-x--1----(1)-x--1------------------------------------5-b-----------------------------|

 

GUITAR 2:

 

e|---------------------------------------------------------------------|

B|-------------------------------------------------------10------------|

G|--------------------------------7--9-/-10--9--7-/-9--------9--7-/-9--|

D|--10--10--9--7--9--10---10--10---------------------------------------|

A|---------------------------------------------------------------------|

E|---------------------------------------------------------------------|

 

GUITAR 3:

 

e|----------------------------------|

B|--(6)-x--6----(6)-x--6------17-b--|

G|--(5)-x--5----(5)-x--5------17-b--|

D|--(3)-x--3----(3)-x--3------------|

A|----------------------------------|

E|----------------------------------|

 

GUITAR 1:

 

e|----------------------------------------------------------|

B|----------------------------------------------------------|

G|----------------------------------------------------------|

D|--3--3--3--3---5--5--5--5---7--7--7--7---9--9--9--9---10--|

A|--3--3--3--3---5--5--5--5---7--7--7--7---9--9--9--9---10--|

E|--1--1--1--1---3--3--3--3---5--5--5--5---7--7--7--7---8---|

 

GUITAR 2:

 

e|-------------------------------------------------------------------------|-------------------9--7--|

B|-------------------------------------------------------------------------|---------8--10--7--------|

G|------------------------------9-----------------------------------9------|--9--11------------------|

D|--9--10--9--10--9--10--9--10-----10---9--10--9--10--9--10--9--10-----10--|-------------------------|

A|-------------------------------------------------------------------------|-------------------------|

E|-------------------------------------------------------------------------|-------------------------|

 

GUITAR 3:

 

e|------------------------------------------------------------------|

B|--6--6--6--6---8--8--8--8---10--10--10--10---12--12--12--12---13--|

G|--5--5--5--5---7--7--7--7---9---9---9---9----11--11--11--11---12--|

D|--3--3--3--3---5--5--5--5---7---7---7---7----9---9---9---9----10--|

A|------------------------------------------------------------------|

E|------------------------------------------------------------------|

 

 

Chorus/Estribillo:

 

GUITAR 1:

 

e|-----------------------------------------------------|

B|-----------------------------------------------------|

G|--5--5--5--5---7--7--7--7---4--4--4--4---------------|

D|--5--5--5--5---7--7--7--7---4--4--4--4---2--2--2--2--|

A|--3--3--3--3---5--5--5--5---2--2--2--2---2--2--2--2--|

E|-----------------------------------------0--0--0--0--|

 

GUITAR 2:

 

e|-----8--7---------10--8--7-----10--8--7--7------------|

B|-----------10--7------------7---------------8------7--|

G|--9---------------------------------------------9-----|

D|------------------------------------------------------|

A|------------------------------------------------------|

E|------------------------------------------------------|

 

GUITAR 1:

 

e|-----------------------------------------------------------------|

B|-----------------------------------------------------------------|

G|--5--5--5--5---7--7--7--7---4--4--4--4---------------------------|

D|--5--5--5--5---7--7--7--7---4--4--4--4---2--4--2-----4--2--------|

A|--3--3--3--3---5--5--5--5---2--2--2--2---2--------5--------5--0--|

E|-----------------------------------------0-----------------------|

 

GUITAR 2:

 

e|------------------------------10--8--8--7------8--7--|

B|--8-----7--8-----7--8--10------------------10--------|

G|-----9--------9------------7-------------------------|

D|-----------------------------------------------------|

A|-----------------------------------------------------|

E|-----------------------------------------------------|

 

GUITAR 1:

 

e|-----------------------------------------------------|

B|-----------------------------------------------------|

G|--5--5--5--5---7--7--7--7---4--4--4--4---------------|

D|--5--5--5--5---7--7--7--7---4--4--4--4---2--2--2--2--|

A|--3--3--3--3---5--5--5--5---2--2--2--2---2--2--2--2--|

E|-----------------------------------------0--0--0--0--|

 

GUITAR 2:

 

e|--10--10--10------------10--10------------10--10--10------------------------------------|

B|--------------8--8--8-----------7--7--7---------------10--10--7--7--8--10--10--8--7--8--|

G|----------------------------------------------------------------------------------------|

D|----------------------------------------------------------------------------------------|

A|----------------------------------------------------------------------------------------|

E|----------------------------------------------------------------------------------------|

 

GUITAR 1:

 

e|--------------------------------------|

B|--------------------------------------|

G|--5--x--x--5---7--x--x--7-------------|

D|--5--x--x--5---7--x--x--7---3------7--|

A|--3--x--x--3---5--x--x--5---3------7--|

E|----------------------------1------5--|

 

GUITAR 2:

 

e|--8--7-----8--7-----8--7-----8--7-----8--7---------8--8--8--7-----|

B|--------8--------8--------8--------8--------8---8--------------8--|

G|------------------------------------------------------------------|

D|------------------------------------------------------------------|

A|------------------------------------------------------------------|

E|------------------------------------------------------------------|

 

ANGEL - Tron544
00:00 / 00:00

©2019 by Fefe - Tron544

Sigueme en:

  • YouTube - White Circle
  • Facebook - White Circle
  • Instagram - White Circle
  • Twitter - White Circle
This site was designed with the
.com
website builder. Create your website today.
Start Now