~ ALUMINA ~

TABLATURAS ~ By Fefe - Tron544

 

Intro:

 

GUITAR 1:

 

e|----------------|----------------|

B|----------------|----------------|

G|----------------|----------------|

D|--8------8---6--|--4------4---3--|

A|--8------8---6--|--4------4---3--|

D|--8------8---6--|--4------4---3--|

 

GUITAR 2:

 

e|-----------------------------------------------|-----------------------------------------------|

B|-----------------------------------------------|-----------------------------------------------|

G|-----------------------------------------------|-----------------------------------------------|

D|--10--8-----8--10--8-----8--10--8--10--11--11--|--10--8-----8--10--8-----8--10--8--10--11--11--|

A|---------8------------8------------------------|---------9------------9------------------------|

D|-----------------------------------------------|-----------------------------------------------|

 

GUITAR 1:

 

e|------------|-----------------------------------------|

B|------------|-----------------------------------------|

G|------------|-----------------------------------------|

D|--1------3--|--8---8------8---8------8--8------8---6--|

A|--1------3--|--8---8------8---8------8--8------8---6--|

D|--1------3--|--8---8------8---8------8--8------8---6--|

 

GUITAR 2:

 

e|--------------------------------------------------|----------------------------|

B|--------------------------------------------------|----------------------------|

G|--8--8--8--8--8--10--11--10-----------------------|-------------------------8--|

D|------------------------------------------10--11--|--10------8--8------11------|

A|---------------------------------8--8--8----------|----------------------------|

D|--------------------------------------------------|----------------------------|

 

 

Verse/Estrofa:

 

GUITAR 1:

 

e|-------------------------16---13---------------------16--|

B|--11------11---13---14----------------11---13---14-------|

G|-------------------------13---10---------------------13--|

D|--8-------8----10---11----------------8----10---11-------|

A|---------------------------------------------------------|

D|---------------------------------------------------------|

 

GUITAR 2:

 

e|---------------------------------------------------|

B|---------------------------------------------9--9--|

G|--10--8--10--8--10--8------8---8--10--8--10--------|

D|-----------------------11--------------------------|

A|---------------------------------------------------|

D|---------------------------------------------------|

 

GUITAR 1:

 

e|--13---------------------16---14---16-------------------16--|

B|----------10---13---14-------------------10---13---14-------|

G|--10---------------------13---11---13-------------------13--|

D|----------8----10---11-------------------8----10---11-------|

A|------------------------------------------------------------|

D|------------------------------------------------------------|

 

GUITAR 2:

 

e|------------------------------------------------------|

B|------------------------------------------------------|

G|--10--8--10--8--10--8------8---8--11--11--------------|

D|-----------------------11------------------11--10--8--|

A|------------------------------------------------------|

D|------------------------------------------------------|

 

GUITAR 1:

 

e|--13---------------------16---13---------------------16--|--13---------------------16---14--|

B|----------11---13---14----------------11---13---14-------|----------10---13---14------------|

G|--10---------------------13---10---------------------13--|--10---------------------13---11--|

D|----------8----10---11----------------8----10---11-------|----------8----10---11------------|

A|---------------------------------------------------------|----------------------------------|

D|---------------------------------------------------------|----------------------------------|

 

GUITAR 2:

 

e|---------------------------------------------------|-----------------------------------------------------------|

B|---------------------------------------------9--9--|-----------------------------------------------------------|

G|--10--8--10--8--10--8------8---8--10--8--10--------|--10--8--10--8--10--8------8---8--11------10--8-----10--8--|

D|-----------------------11--------------------------|-----------------------11------------------------11--------|

A|---------------------------------------------------|-----------------------------------------------------------|

D|---------------------------------------------------|-----------------------------------------------------------|

 

GUITAR 1:

 

e|---------------------------|

B|--10---11----14---11---10--|

G|--10---10----10---10---10--|

D|--10---10----10---10---10--|

A|---------------------------|

D|---------------------------|

 

 

Chorus/Estribillo:

 

GUITAR 1:

 

e|--------------------------|---------------------------|

B|--6------6------6------8--|--7------10------6------6--|

G|--6------6------6------8--|--8------8-------6------7--|

D|--8------7------6------8--|--8------10------8------6--|

A|--------------------------|---------------------------|

D|--------------------------|---------------------------|

 

GUITAR 2:

 

e|------------------------------------------------------------|--------------------------------|

B|--------------9--9------------------------------------------|--------------------------------|

G|--10--10--11--------11--10--8--10--10-----------------------|-------------11--11--10--8--10--|

D|---------------------------------------8--10--11----11--10--|--8----8--7---------------------|

A|------------------------------------------------------------|--------------------------------|

D|------------------------------------------------------------|--------------------------------|

 

GUITAR 1:

 

e|--------------------------|------------------------------------------------|

B|--------------------------|------------------------------------------------|

G|--------------------------|----------------------3---------1------------3--|

D|--4------6------8------8--|--4------6---------3---------1---------3--4-----|

A|--4------6------8------8--|--4------6------1--------3---------4------------|

D|--4------6------7------8--|--4------6--------------------------------------|

 

GUITAR 2:

 

e|---------------------------------------9--8--9--|-------------------------------------|

B|--------------9--9------------------------------|-------------------------------------|

G|--10--10--11--------11--10--8--10--10-----------|--------------8------8--11--11---10--|

D|------------------------------------------------|--11--11--11-----11------------------|

A|------------------------------------------------|-------------------------------------|

D|------------------------------------------------|-------------------------------------|

 

 

Outro:

 

e|-----------4--|

B|--------------|

G|--3--5--6-----|

D|--------------|

A|--------------|

D|--------------|

 

 

Alumina - Tron544
00:00 / 00:00

©2019 by Fefe - Tron544

Sigueme en:

  • YouTube - White Circle
  • Facebook - White Circle
  • Instagram - White Circle
  • Twitter - White Circle
This site was designed with the
.com
website builder. Create your website today.
Start Now