ALCHEMY

ANGEL BEATS!

TABS ~ By Fefe (Tron544)

 

Intro:

 

e|--------|-----------------------------------------|
B|--------|-----------------------------------------|
G|--------|-----------------------------------------|
D|--x--x--|--10--10---11---10--10---11--11--11--11--|

A|--x--x--|--8---8----8----8---8----8---8---8---8---|
D|--x--x--|--8---8----8----8---8----8---8---8---8---|


e|--------------------------------|

B|--------------------------------|

G|----------------6--6---5--5--5--|

D|--4---4--4--4-------------------|

A|--4---4--4--4-------------------|

D|--4---4--4--4-------------------|

 

e|-----------------------------------------|-------------------------------------|

B|-----------------------------------------|-------------------------------------|

G|-----------------------------------------|-------------------------------------|

D|--10--10---11---10--10---11--11--11--11--|--4---4--4--4---6--x--x--6--x--x--6--|

A|--8---8----8----8---8----8---8---8---8---|--4---4--4--4---6--x--x--6--x--x--6--|

D|--8---8----8----8---8----8---8---8---8---|--4---4--4--4---6--x--x--6--x--x--6--|

 

 

Verse/Estrofa:

 

GUITAR 1:

 

e|---------------------------------------------------|---------------------------------------------------|

B|---------------------------------------------------|---------------------------------------------------|

G|--5--x--x--5--x--x--5--x---3--x--x--3--x--x--3--x--|--5--x--x--5--x--x--5--x---3--x--x--3--x--x--3--x--|

D|--5--x--x--5--x--x--5--x---5--x--x--5--x--x--5--x--|--5--x--x--5--x--x--5--x---3--x--x--3--x--x--3--x--|

A|--3--x--x--3--x--x--3--x---3--x--x--3--x--x--3--x--|--3--x--x--3--x--x--3--x---1--x--x--1--x--x--1--x--|

D|---------------------------------------------------|---------------------------------------------------|

 

GUITAR 2:

 

e|----------------------------|---------------------------------|

B|---------------8------------|---------------8------------9-b--|

G|-----7--8--10-----10--8-----|-----7--8--10-----10--8--7-------|

D|--8----------------------8--|--8------------------------------|

A|----------------------------|---------------------------------|

D|----------------------------|---------------------------------|

 

GUITAR 1:

 

e|---------------------------------------------------|-------------------------------------------|

B|---------------------------------------------------|-------------------------------------------|

G|--5--x--x--5--x--x--5--x---3--x--x--3--x--x--3--x--|---------------------------6--6---5--5--5--|

D|--5--x--x--5--x--x--5--x---5--x--x--5--x--x--5--x--|--6--x--x--6--x--x--6--x-------------------|

A|--3--x--x--3--x--x--3--x---3--x--x--3--x--x--3--x--|--6--x--x--6--x--x--6--x-------------------|

D|---------------------------------------------------|--6--x--x--6--x--x--6--x-------------------|

 

GUITAR 2:

 

e|-------------------|------------|

B|--8------8---------|------8--8--|

G|------------10--8--|--10--------|

D|-------------------|------------|

A|-------------------|------------|

D|-------------------|------------|

 

GUITAR 1:

 

e|---------------------------------------------------|---------------------------------------------------|

B|---------------------------------------------------|---------------------------------------------------|

G|--5--x--x--5--x--x--5--x---3--x--x--3--x--x--3--x--|--5--x--x--5--x--x--5--x---3--x--x--3--x--x--3--x--|

D|--5--x--x--5--x--x--5--x---5--x--x--5--x--x--5--x--|--5--x--x--5--x--x--5--x---3--x--x--3--x--x--3--x--|

A|--3--x--x--3--x--x--3--x---3--x--x--3--x--x--3--x--|--3--x--x--3--x--x--3--x---1--x--x--1--x--x--1--x--|

D|---------------------------------------------------|---------------------------------------------------|

 

GUITAR 2:

 

e|----------------------------|---------------------------------|

B|---------------8------------|---------------8------------9-b--|

G|-----7--8--10-----10--8-----|-----7--8--10-----10--8--7-------|

D|--8----------------------8--|--8------------------------------|

A|----------------------------|---------------------------------|

D|----------------------------|---------------------------------|

 

GUITAR 1:

 

e|-------------------------------------------|---------------------------------------------------|

B|-------------------------------------------|---------------------------------------------------|

G|---------------------------6--6---5--5--5--|---------------------------------------------------|

D|--6--x--x--6--x--x--6--x-------------------|--6--x--x--6--x--x--6--x---5--x--x--5--x--x--5--x--|

A|--6--x--x--6--x--x--6--x-------------------|--6--x--x--6--x--x--6--x---5--x--x--5--x--x--5--x--|

D|--6--x--x--6--x--x--6--x-------------------|--6--x--x--6--x--x--6--x---5--x--x--5--x--x--5--x--|

 

GUITAR 2:

 

e|-------------------|-------------------------------------------|

B|--8------8---------|------8--8-----------------------8---------|

G|------------10--8--|--10----------8--10-b--10-b---------10--8--|

D|-------------------|-------------------------------------------|

A|-------------------|-------------------------------------------|

D|-------------------|-------------------------------------------|

 

GUITAR 1:

 

e|------------|------------|-----|

B|------------|------------|-----|

G|--8---------|------------|-----|

D|--8------8--|--6------7--|--8--|

A|--6------8--|--6------8--|--8--|

D|---------8--|--6------7--|--8--|

 

GUITAR 2:

 

e|-----------------------------------------|----------------------------|------|

B|------11--11-------------------8---------|----------------------------|------|

G|--10------------8--10--10---------10--8--|--7--8--8--7----------7--8--|--10--|

D|-----------------------------------------|--------------10--10--------|------|

A|-----------------------------------------|----------------------------|------|

D|-----------------------------------------|----------------------------|------|

 

 

Pre-Chorus/Pre-Estribillo:

 

GUITAR 1:

 

e|---------------------|----------------------------------------------------------|

B|---------------------|----------------------------------------------------------|

G|---------------------|----------------------------------------------------------|

D|--7----3----5----10--|--(7)-x--x--x---(3)-x--x--x---(5)-x--x--x---(10)-x--x--x--|

A|--7----3----5----10--|--(7)-x--x--x---(3)-x--x--x---(5)-x--x--x---(10)-x--x--x--|

D|--7----3----5----10--|--(7)-x--x--x---(3)-x--x--x---(5)-x--x--x---(10)-x--x--x--|

 

GUITAR 2:

 

e|---------------------------|----------------------------------|

B|--8------------------------|----------------------------------|

G|-----10--9--7--9--7--9--9--|-----5--5--5--5-------5--5--7--5--|

D|---------------------------|--5----------------5--------------|

A|---------------------------|----------------------------------|

D|---------------------------|----------------------------------|

 

GUITAR 1:

 

e|---------------------|---------------------------------------------------------|

B|---------------------|---------------------------------------------------------|

G|---------------------|---------------------------------------------------------|

D|--7----3----5----10--|--(7)-x--x--x---(3)-x--x--x---(3)-x--x--x---(3)-x--x--x--|

A|--7----3----5----10--|--(7)-x--x--x---(3)-x--x--x---(3)-x--x--x---(3)-x--x--x--|

D|--7----3----5----10--|--(7)-x--x--x---(3)-x--x--x---(3)-x--x--x---(3)-x--x--x--|

 

GUITAR 2:

 

e|---------------------------|----------------------------------|

B|--8------------------------|----------------------------------|

G|-----10--9--7--9--7--9--9--|-----5--5--5--5--9--7--9--9-h-10--|

D|---------------------------|--5-------------------------------|

A|---------------------------|----------------------------------|

D|---------------------------|----------------------------------|

 

GUITAR 1:

 

e|---------------------------------------------------------|

B|---------------------------------------------------------|

G|---------------------------------------------------------|

D|--(5)-x--x--x---(5)-x--x--x---(5)-x--x--x---(5)-x--x--x--|

A|--(5)-x--x--x---(5)-x--x--x---(5)-x--x--x---(5)-x--x--x--|

D|--(5)-x--x--x---(5)-x--x--x---(5)-x--x--x---(5)-x--x--x--|

 

GUITAR 2:

 

e|--------|

B|--------|

G|--10-b--|

D|--------|

A|--------|

D|--------|

 

 

Chorus/Estribillo:

 

GUITAR 1:

 

e|--------------------------|--------------------------|

B|--------------------------|--------------------------|

G|-----------------------6--|----------------6---------|

D|--8------4------6------6--|--8------4------6------6--|

A|--8------4------6------4--|--8------4------4------6--|

D|--8------4------6---------|--8------4-------------6--|

 

GUITAR 2:

 

e|-------------------------8-----8--9--8--|---------------------|

B|--11------11--9-------------9-----------|--9------------------|

G|------10---------11--10-----------------|---------11--11--10--|

D|----------------------------------------|---------------------|

A|----------------------------------------|---------------------|

D|----------------------------------------|---------------------|

 

GUITAR 1:

 

e|--------------------------|--------------------------|

B|--------------------------|--------------------------|

G|----------------6---------|----------------6---------|

D|--8------4------6------6--|--8------4------6------6--|

A|--8------4------4------6--|--8------4------4------6--|

D|--8------4-------------6--|--8------4-------------6--|

 

GUITAR 2:

 

e|------------------------------------------|------------------------------|

B|--11------11--9---------------------------|------------------------------|

G|------10---------11--10--8--10------8--8--|----------8-------------------|

D|--------------------------------11--------|--11---------11--10--10-h-11--|

A|------------------------------------------|------------------------------|

D|------------------------------------------|------------------------------|

 

GUITAR 1:

 

e|--------------------------|--------------------------|

B|--------------------------|--------------------------|

G|-----------------------6--|----------------6---------|

D|--8------4------6------6--|--8------4------6------6--|

A|--8------4------6------4--|--8------4------4------6--|

D|--8------4------6---------|--8------4-------------6--|

 

GUITAR 2:

 

e|-------------------------8-----8--9--8--|---------------------|

B|--11------11--9-------------9-----------|--9------------------|

G|------10---------11--10-----------------|---------11--11--10--|

D|----------------------------------------|---------------------|

A|----------------------------------------|---------------------|

D|----------------------------------------|---------------------|

 

GUITAR 1:

 

e|--------------------------|---------------------------------|

B|--------------------------|---------------------------------|

G|----------------6---------|---------------------------------|

D|--8------4------6------6--|--(4)-x--x--x---(4)-x--x--x---4--|

A|--8------4------4------6--|--(4)-x--x--x---(4)-x--x--x---4--|

D|--8------4-------------6--|--(4)-x--x--x---(4)-x--x--x---4--|

 

GUITAR 2:

 

e|------------------------------------------|------------------------------|

B|--11------11--9---------------------------|------------------------------|

G|------10---------11--10--8--10------8--8--|----------8-------------------|

D|--------------------------------11--------|--11---------11--10--10-h-11--|

A|------------------------------------------|------------------------------|

D|------------------------------------------|------------------------------|

Alchemy - Tron544
00:00 / 00:00
DONATE%20BUTTON%20(EN)_edited.png

Solo:

 

GUITAR 1:

 

e|------------|------------|

B|------------|------------|

G|------------|------------|

D|--8------7--|--6------5--|

A|--8------8--|--6------5--|

D|--8------7--|--6------5--|

 

GUITAR 2:

 

e|--6--6--8--9----6--6--8--9--|--6--6--8--9-------------------------------------|

B|--6--6--6--6----6--6--6--6--|--6--6--6--6----16--16--16--16---18--18--18--18--|

G|----------------------------|-------------------------------------------------|

D|----------------------------|----------------13--13--13--13---15--15--15--15--|

A|----------------------------|-------------------------------------------------|

D|----------------------------|-------------------------------------------------|

 

GUITAR 3:

 

e|-------------|-------------|

B|-------------|--11---------|

G|--8------10--|------8------|

D|-------------|---------11--|

A|-------------|-------------|

D|-------------|-------------|

 

GUITAR 1:

 

e|-----|

B|-----|

G|-----|

D|--4--|

A|--4--|

D|--4--|

 

GUITAR 2:

 

e|---------------------------------------------------------|

B|--21--21--21--21---18--18--18--18---16--16--16--16---14--|

G|---------------------------------------------------------|

D|--18--18--18--18---15--15--15--15---13--13--13--13---11--|

A|---------------------------------------------------------|

D|---------------------------------------------------------|

 

GUITAR 1:

 

e|-----|

B|-----|

G|-----|

D|--6--|

A|--6--|

D|--6--|

 

GUITAR 2:

 

e|--------------------------------------------------13------13--16--16--|

B|--------------------------14------14--16--14--16------16--------------|

G|--15--14--15--17--15--17------17--------------------------------------|

D|----------------------------------------------------------------------|

A|----------------------------------------------------------------------|

D|----------------------------------------------------------------------|

 

 

Pre-Chorus/Pre-Estribillo:

 

GUITAR 1:

 

e|---------------------|----------------------------------------------------------|

B|---------------------|----------------------------------------------------------|

G|---------------------|----------------------------------------------------------|

D|--7----3----5----10--|--(7)-x--x--x---(3)-x--x--x---(5)-x--x--x---(10)-x--x--x--|

A|--7----3----5----10--|--(7)-x--x--x---(3)-x--x--x---(5)-x--x--x---(10)-x--x--x--|

D|--7----3----5----10--|--(7)-x--x--x---(3)-x--x--x---(5)-x--x--x---(10)-x--x--x--|

 

GUITAR 2:

 

e|---------------------------|----------------------------------|

B|--8------------------------|----------------------------------|

G|-----10--9--7--9--7--9--9--|-----5--5--5--5-------5--5--7--5--|

D|---------------------------|--5----------------5--------------|

A|---------------------------|----------------------------------|

D|---------------------------|----------------------------------|

 

GUITAR 1:

 

e|---------------------|---------------------------------------------------------|

B|---------------------|---------------------------------------------------------|

G|---------------------|---------------------------------------------------------|

D|--7----3----5----10--|--(7)-x--x--x---(3)-x--x--x---(3)-x--x--x---(3)-x--x--x--|

A|--7----3----5----10--|--(7)-x--x--x---(3)-x--x--x---(3)-x--x--x---(3)-x--x--x--|

D|--7----3----5----10--|--(7)-x--x--x---(3)-x--x--x---(3)-x--x--x---(3)-x--x--x--|

 

GUITAR 2:

 

e|---------------------------|----------------------------------|

B|--8------------------------|----------------------------------|

G|-----10--9--7--9--7--9--9--|-----5--5--5--5--9--7--9--9-h-10--|

D|---------------------------|--5-------------------------------|

A|---------------------------|----------------------------------|

D|---------------------------|----------------------------------|

 

GUITAR 1:

 

e|---------------------------------------------------------|

B|---------------------------------------------------------|

G|---------------------------------------------------------|

D|--(5)-x--x--x---(5)-x--x--x---(5)-x--x--x---(5)-x--x--x--|

A|--(5)-x--x--x---(5)-x--x--x---(5)-x--x--x---(5)-x--x--x--|

D|--(5)-x--x--x---(5)-x--x--x---(5)-x--x--x---(5)-x--x--x--|

 

GUITAR 2:

 

e|--------|

B|--------|

G|--10-b--|

D|--------|

A|--------|

D|--------|

 

 

Chorus/Estribillo:

 

GUITAR 1:

 

e|--------------------------|--------------------------|

B|--------------------------|--------------------------|

G|-----------------------6--|----------------6---------|

D|--8------4------6------6--|--8------4------6------6--|

A|--8------4------6------4--|--8------4------4------6--|

D|--8------4------6---------|--8------4-------------6--|

 

GUITAR 2:

 

e|-------------------------8-----8--9--8--|---------------------|

B|--11------11--9-------------9-----------|--9------------------|

G|------10---------11--10-----------------|---------11--11--10--|

D|----------------------------------------|---------------------|

A|----------------------------------------|---------------------|

D|----------------------------------------|---------------------|

 

GUITAR 1:

 

e|--------------------------|--------------------------|

B|--------------------------|--------------------------|

G|----------------6---------|----------------6---------|

D|--8------4------6------6--|--8------4------6------6--|

A|--8------4------4------6--|--8------4------4------6--|

D|--8------4-------------6--|--8------4-------------6--|

 

GUITAR 2:

 

e|------------------------------------------|------------------------------|

B|--11------11--9---------------------------|------------------------------|

G|------10---------11--10--8--10------8--8--|----------8-------------------|

D|--------------------------------11--------|--11---------11--10--10-h-11--|

A|------------------------------------------|------------------------------|

D|------------------------------------------|------------------------------|

 

GUITAR 1:

 

e|--------------------------|--------------------------|

B|--------------------------|--------------------------|

G|-----------------------6--|----------------6---------|

D|--8------4------6------6--|--8------4------6------6--|

A|--8------4------6------4--|--8------4------4------6--|

D|--8------4------6---------|--8------4-------------6--|

 

GUITAR 2:

 

e|-------------------------8-----8--9--8--|---------------------|

B|--11------11--9-------------9-----------|--9------------------|

G|------10---------11--10-----------------|---------11--11--10--|

D|----------------------------------------|---------------------|

A|----------------------------------------|---------------------|

D|----------------------------------------|---------------------|

 

GUITAR 1:

 

e|--------------------------|---------------------------------|

B|--------------------------|---------------------------------|

G|----------------6---------|---------------------------------|

D|--8------4------6------6--|--(4)-x--x--x---(4)-x--x--x---4--|

A|--8------4------4------6--|--(4)-x--x--x---(4)-x--x--x---4--|

D|--8------4-------------6--|--(4)-x--x--x---(4)-x--x--x---4--|

 

GUITAR 2:

 

e|------------------------------------------|-------------------------------|

B|--11------11--9---------------------------|----------16--14--13--13-h-14--|

G|------10---------11--10--8--10------8--8--|-------------------------------|

D|--------------------------------11--------|--11---------------------------|

A|------------------------------------------|-------------------------------|

D|------------------------------------------|-------------------------------|

 

GUITAR 1:

 

e|--------------------------|--------------------------|

B|--------------------------|--------------------------|

G|-----------------------6--|-----------------------6--|

D|--8------4------6------6--|--8------4------6------6--|

A|--8------4------6------4--|--8------4------6------4--|

D|--8------4------6---------|--8------4------6---------|

 

GUITAR 2:

 

e|-----------------------|-----------------------|

B|--16--14--13--13-h-14--|--16--14--13--13-h-14--|

G|-----------------------|-----------------------|

D|-----------------------|-----------------------|

A|-----------------------|-----------------------|

D|-----------------------|-----------------------|

 

GUITAR 1:

 

e|--------------------------|--------------------------|

B|--------------------------|--------------------------|

G|-----------------------6--|-----------------------6--|

D|--8------4------6------6--|--8------4------6------6--|

A|--8------4------6------4--|--8------4------6------4--|

D|--8------4------6---------|--8------4------6---------|

 

GUITAR 2:

 

e|-----------------------|

B|--16--14--13--13-h-14--|

G|-----------------------|

D|-----------------------|

A|-----------------------|

D|-----------------------|

 

Outro:

 

GUITAR 1:

 

e|--------------------------|--------------------------|

B|--------------------------|--------------------------|

G|-----------------------6--|-----------------------6--|

D|--8------4------6------6--|--8------4------6------6--|

A|--8------4------6------4--|--8------4------6------4--|

D|--8------4------6---------|--8------4------6---------|

 

GUITAR 2:

 

e|--------------------------------------------------|-------6-------6-------6------------------------|

B|-------6-------6-------6-------6-------6-------6--|-------6-------6-------6------------------------|

G|--8-b-----8-b-----8-b-----8-b-----8-b-----8-b-----|--8-b-----8-b-----8-b-----8-b-r--6--8--6--5--6--|

D|--------------------------------------------------|------------------------------------------------|

A|--------------------------------------------------|------------------------------------------------|

D|--------------------------------------------------|------------------------------------------------|

 

GUITAR 1:

 

e|--------------------------|--------------------------|-----|

B|--------------------------|--------------------------|-----|

G|-----------------------6--|-----------------------6--|-----|

D|--8------4------6------6--|--8------4------6------6--|--4--|

A|--8------4------6------4--|--8------4------6------4--|--4--|

D|--8------4------6---------|--8------4------6---------|--4--|

 

GUITAR 2:

 

e|----------------------------------------------|--6-----8------9------11-----13-----13----|--13----|

B|--16--x--x--14--x--x--16--14----16---14---13--|--9-b---11-b---12-b---14-b---16-b---16-b--|--16-b--|

G|--13--x--x--13--x--x--13--13----13---13---13--|------------------------------------------|--------|

D|----------------------------------------------|------------------------------------------|--------|

A|----------------------------------------------|------------------------------------------|--------|

D|----------------------------------------------|------------------------------------------|--------|

©2015 by Fefe - Tron544

Sigueme en:

  • YouTube - White Circle
  • Facebook - White Circle
  • Instagram - White Circle
  • Twitter - White Circle
This site was designed with the
.com
website builder. Create your website today.
Start Now