~ AGAIN ~

ACORDES ~ By Fefe - Tron544

 

Chords used/Acordes utilizados:

 

A: x.0.2.2.2.0
B7: x.2.4.2.4.2
C: x.1.3.3.3.1
D: x.5.7.7.7.5
Em: 0.2.2.0.0.0  or  x.7.9.9.8.7

 

 

Intro:

 

C            D

Kono omoi wo keshite shimau ni wa

Em

Mada jinsei nagai deshou

C                    D                Em

Yarinokoshiteru koto yarinaoshite mitai kara

 

Em - D | C - B7 | B7 |

 

 

Verse/Estrofa:

 

Em         D        C

   Yume no tsuzuki, oikakete ita hazu na no ni

Em    D        C

Magarikunetta, hosoi michi, hito ni tsumazuku

Em                    D

Ano koro mitai ni tte modoritai wake ja nai no

C

Nakushite kita sora o, sagashiteru

Em                      D

Wakatte kuremasu you ni gisei ni natta you na

C

Kanashii kao wa, yamete yo!

 

 

Pre-Chorus/Pre-Estribillo:

 

Em                                  Em  

Tsumi no saigo wa namida ja nai yo, zutto kurushiku seottekun da

Em                              C      D

Deguchi mienai kanjou meiro ni, dare o matteru no

Em                               Em

Shiroi nooto ni tsuzutta you ni, motto sunao ni hakidashitai yo

Em                        C    D

Nani kara, nogaretain da, Genjitsu tte yatsu

 

 

Chorus/Estribillo:

 

C                D

Kanaeru tame ni, ikiterun da tte

Em                A       B7

Wasurechaisou na, yoru no mannaka

C               D          Em

Munan ni nante, yatterarenai kara

Em          B7

Kaeru basho mo nai no

C           D

Kono omoi o keshite shimau ni wa

Em                       A      B7   

Mada jinsei nagai desho (I'M ON MY WAY)

C                  D                         Em

Natsukashiku naru, konna itami mo kangeijan

 

 

 

TABLATURAS ~ By Fefe - Tron544

 

Intro:

 

e|----------------------------------------------------------------------------------|

B|-----12----------------------12---------------------------------------------------|

G|--9------9--9--------------------9--9--9--11----11--11--11--12--11--12--11--------|

D|---------------12----12--12-------------------------------------------------9--9--|

A|----------------------------------------------------------------------------------|

E|----------------------------------------------------------------------------------|

 

e|----------------------------------------------------------------------|

B|----------------------------------10--10--10--8--10--8--12--10--8-----|

G|--9--9--12--9--9--9--9---------------------------------------------9--|

D|------------------------12----12--------------------------------------|

A|----------------------------------------------------------------------|

E|----------------------------------------------------------------------|

 

e|-----------------------------------------------------|

B|--------8--7---------------8--7----------------------|

G|-----7--------7---------7--------8-b-r-b-r-b-r-b--8--|

D|--9------------------9-------------------------------|

A|-----------------------------------------------------|

E|-----------------------------------------------------|

 

 

Verse/Estrofa:

 

e|------------------------------------------------------------------------|

B|------------------------------------------------------------------------|

G|--9--11--12--11--12--11----11--11--12--11--12--12--11-------------------|

D|-------------------------------------------------------9--10--9--10--9--|

A|------------------------------------------------------------------------|

E|------------------------------------------------------------------------|

 

e|-------------------------------------------------------------------------|

B|-----------------------------------------------12------------------------|

G|--9--11--12--11--12--11----11--11--12--11--12------9--9--11--11--12--11--|

D|-------------------------------------------------------------------------|

A|-------------------------------------------------------------------------|

E|-------------------------------------------------------------------------|

 

GUITAR 1:

 

e|--------------------------------------------------------------------------------------------------|

B|--------------------------------------------------------------------------------------------------|

G|-----------------------------7--7--9--------------------7--7--9-----------------------12--11------|

D|--7--9--7--9--9--9--9--9--7-----------9--9--9--9--9--7-----------9--9--9--10--9----9----------12--|

A|--------------------------------------------------------------------------------------------------|

E|--------------------------------------------------------------------------------------------------|

 

GUITAR 2:

 

e|--7------12-(H)----------|

B|--8--------------12-(H)--|

G|--9----------------------|

D|-------------------------|

A|-------------------------|

E|-------------------------|

 

GUITAR 1:

 

e|--------------------------------------------------------------------------------------------|

B|--------------------------------------------------------------------------------------------|

G|-----------------------------7--7--9-----------------7--7--9--------------------12--11------|

D|--7--9--7--9--9--9--9--9--7-----------9--9--9--9--7-----------9--9--10--9----9----------12--|

A|--------------------------------------------------------------------------------------------|

E|--------------------------------------------------------------------------------------------|

 

GUITAR 2:

 

e|--7------12-(H)------------------|

B|--8--------------12-(H)----------|

G|--9----------------------12-(H)--|

D|---------------------------------|

A|---------------------------------|

E|---------------------------------|

 

 

Pre-Chorus/Pre-Estribillo:

 

GUITAR 1:

 

e|-------------------------------------------------------------------|

B|-----------------------------------------------------------12--10--|

G|--9--9--9--9--9--9--9--9--12--9----9--9--9--9--9--9--9--9----------|

D|-------------------------------------------------------------------|

A|-------------------------------------------------------------------|

E|-------------------------------------------------------------------|

 

GUITAR 2:

 

e|--7--7------7--7--|

B|--8--8------8--8--|

G|--9--9------9--9--|

D|------------------|

A|------------------|

E|------------------|

 

GUITAR 1:

 

e|-----------------------------------------------------------|

B|-----------------------------------------------------------|

G|--9--9--9--9--9--9--9--9--12--9----9--9--9--12--11--9------|

D|-------------------------------------------------------12--|

A|-----------------------------------------------------------|

E|-----------------------------------------------------------|

 

GUITAR 2:

 

e|--7--7------0--0---0---0--------|

B|--8--8------1--1---2------2-----|

G|--9--9------0--0---3---------3--|

D|------------2--2---0------------|

A|------------3--3----------------|

E|--------------------------------|

 

GUITAR 1:

 

e|-------------------------------------------------------------------|

B|-----------------------------------------------------------12--10--|

G|--9--9--9--9--9--9--9--9--12--9----9--9--9--9--9--9--9--9----------|

D|-------------------------------------------------------------------|

A|-------------------------------------------------------------------|

E|-------------------------------------------------------------------|

 

GUITAR 2:

 

e|--7--7------7--7--|

B|--8--8------8--8--|

G|--9--9------9--9--|

D|------------------|

A|------------------|

E|------------------|

 

GUITAR 1:

 

e|-----------------------------------------------10--------------|

B|-----------------------------------12--12--12------12--10------|

G|--9--9--9--9--9--9--9--9--12--9----------------------------12--|

D|---------------------------------------------------------------|

A|---------------------------------------------------------------|

E|---------------------------------------------------------------|

 

GUITAR 2:

 

e|--7--7------0--0---0---0--------|

B|--8--8------1--1---2------2-----|

G|--9--9------0--0---3---------3--|

D|------------2--2---0------------|

A|------------3--3----------------|

E|--------------------------------|

 

 

Chorus/Estribillo:

 

e|-----------------------------------------------------------------------------------------------|

B|--12----------------------12-------------------------------------------------------------------|

G|------9--9--------------------9--9--9--11----11--11--11--12--11--12--11-----------------9--11--|

D|------------12----12--12-------------------------------------------------9--9----9--12---------|

A|-----------------------------------------------------------------------------------------------|

E|-----------------------------------------------------------------------------------------------|

 

e|-------------------------------------------------------------------------10--------------|

B|--------------------10--10--10--8--10--8--12--10--8----------12--12--12------12--10------|

G|--11--12--9--9---------------------------------------9----9--------------------------12--|

D|----------------12-----------------------------------------------------------------------|

A|-----------------------------------------------------------------------------------------|

E|-----------------------------------------------------------------------------------------|

 

e|-----------------------------------------------------------------------------------------------|

B|--12----------------------12-------------------------------------------------------------------|

G|------9--9--------------------9--9--9--11----11--11--11--12--11--12--11-----------------9--11--|

D|------------12----12--12-------------------------------------------------9--9----9--12---------|

A|-----------------------------------------------------------------------------------------------|

E|-----------------------------------------------------------------------------------------------|

 

e|---------------------------------------------------|

B|--------------------10--10--10--10--8--10-10---12--|

G|--11--12--9--9-------------------------------------|

D|----------------12---------------------------------|

A|---------------------------------------------------|

E|---------------------------------------------------|

Again - Tron544
00:00 / 00:00

©2019 by Fefe - Tron544

Sigueme en:

  • YouTube - White Circle
  • Facebook - White Circle
  • Instagram - White Circle
  • Twitter - White Circle
This site was designed with the
.com
website builder. Create your website today.
Start Now