~ ADVENTURE TIME ~

ACORDES ~ By Fefe - Tron544


Chords used/Acordes utilizados:

 

(GUITAR)

 

C: x.3.2.0.1.0
D: x.x.0.2.3.2
G: 3.2.0.0.3.3

 

(UKULELE)

 

C: 0.0.0.3
D: 2.2.2.0
G: 0.2.3.2

 


   G
Adventure Time
     D
Come on grab your friends
       C        D  
We'll go to very distant lands
      G
with Jake the dog
     D
and Finn the human
     C             D
The fun will never end
                G
It's Adventure Time!

 

 

 

TABLATURAS ~ By Fefe - Tron544

 

e|------|---------------------------------------------------------------------|
B|------|--8--8--8------7-----------------------------------------------------|
G|------|------------7-----9--7--9--7-----------------------------------------|
D|------|-------------------------------9-/-10--9--7-------9-/-10--9--7-------|
A|--10--|---------------------------------------------10------------------10--|
E|------|---------------------------------------------------------------------|

 

e|------------------------------------------------------------|
B|--8--8--8------7-----------------------------------------8--|
G|------------7-----9--9--7---------------7--7----------------|
D|----------------------------10--10--10---------9--7---------|
A|-----------------------------------------------------10-----|
E|------------------------------------------------------------|

Adventure Time - Tron544
00:00 / 00:00

©2019 by Fefe - Tron544

Sigueme en:

  • YouTube - White Circle
  • Facebook - White Circle
  • Instagram - White Circle
  • Twitter - White Circle
This site was designed with the
.com
website builder. Create your website today.
Start Now