~ ADAMAS ~

TABLATURAS ~ By Fefe - Tron544

 

Intro:

GUITAR (Rhythm):

eb|--------------------------------------------------------------|
Bb|--------------------------------------------------------------|
Gb|--------------------------------------------------------------|
Db|--5-5-5-7-7-7-5-5-5-7-7-7-10-10-7-7--5-5-5-7-7-7-5-5-5-4-4-4--|
Ab|--------------------------------------------------------------|
Db|--------------------------------------------------------------|

GUITAR (Lead):

eb|--------------------------------------------------------------|
Bb|--------------------------------------------------------------|
Gb|--5-5-5-7-7-7-5-5-5-7-7-7-10-10-7-7--5-5-5-7-7-7-5-5-5-7-7-7--|
Db|--------------------------------------------------------------|
Ab|--------------------------------------------------------------|
Db|--------------------------------------------------------------|

GUITAR (Rhythm):

eb|-------------------------------------------------------------|
Bb|-------------------------------------------------------------|
Gb|--3--3-3-3-3-3-3--5--5-5-5-5-5-----------------2--2-2-2-2-2--|
Db|--3--3-3-3-3-3-3--5--5-5-5-5-5-0--0-0-0-0-0-0--2--2-2-2-2-2--|
Ab|--1--1-1-1-1-1-1--3--3-3-3-3-3-0--0-0-0-0-0-0--0--0-0-0-0-0--|
Db|-------------------------------0--0-0-0-0-0-0----------------|

GUITAR (Lead):

eb|----------------------------------------------------------------------------|
Bb|----------------------------------------------------------10/11--10---------|
Gb|-------10--12--------10--12--12/14----------10--12-------------------12-10--|
Db|--10-----------10-10---------------10--10-----------10-10-------------------|
Ab|----------------------------------------------------------------------------|
Db|----------------------------------------------------------------------------|

GUITAR (Rhythm):

eb|---------------------------------------------------------------|
Bb|---------------------------------------------------------------|
Gb|--3--3-3-3-3-3-3--5--5-5-5-5-5----5--7--------5--7-------------|
Db|--3--3-3-3-3-3-3--5--5-5-5-5-5-0--5--7--(0)-x-5--7--(3)(5)(3)--|
Ab|--1--1-1-1-1-1-1--3--3-3-3-3-3-0--3--5--(0)-x-3--5--(3)(5)(3)--|
Db|-------------------------------0--------(0)-x-------(3)(5)(3)--|

GUITAR (Lead):

eb|--------------------------------------------------------------------------|
Bb|-----------------------------10-13-------13--15---------13--15------------|
Gb|-------10--12--------10--12-------------------------------------10-12-10--|
Db|--10-----------10-10----------------12-----------12-12--------------------|
Ab|--------------------------------------------------------------------------|
Db|--------------------------------------------------------------------------|

 


Verse/Estrofa:

GUITAR (Vocals):

eb|------------------------------------------------------------------------------|
Bb|--------8-/-10-8-----------------------------8-/-10-8-------------------------|
Gb|---7--7----------10-9-9-9-10-9-7----7--7-7-7----------10-7-/-9-9-10-9-7----7--|
Db|---------------------------------10-------------------------------------10----|
Ab|------------------------------------------------------------------------------|
Db|------------------------------------------------------------------------------|

GUITAR (Rhythm):

eb|------------------------------------------------------------------------|
Bb|------------------------------------------------------------------------|
Gb|------------------------------------------------------------------------|
Db|------------------------------------------------------------------------|
Ab|--1-1-1-1-1-1-1-1-1--3-3-3-3-3-3-3-3-------------------0-0-0-0-0-0-0-0--|
Db|--------------------------------------0-0-0-0-0-0-0-0-------------------|

GUITAR (Lead):

eb|---------------------------------------------------------------------------|
Bb|---------------------------------------------------------------------------|
Gb|--7-7-7-7-7-7-7-7-7--7-7-7-7-7-7-7-7--7-7-7-7-7-7-7-7--5-5-5-5-10-10-10-7--|
Db|---------------------------------------------------------------------------|
Ab|---------------------------------------------------------------------------|
Db|---------------------------------------------------------------------------|

GUITAR (Vocals):

eb|-----------------------------------------------------------------------|
Bb|--------8-/-10-8-------------------------------------------------------|
Gb|----7-7----------10-9-9-9-10-9-7----7----10--9------10--9-----------7--|
Db|---------------------------------10------------10----------10--7-10----|
Ab|-----------------------------------------------------------------------|
Db|-----------------------------------------------------------------------|

GUITAR (Rhythm):

eb|-------------------------------------------------------------------|
Bb|-------------------------------------------------------------------|
Gb|-------------------------------------------------------------------|
Db|-------------------------------------------------------------------|
Ab|--1-1-1-1-1-1-1-1--3-3-3-3-3-3-3-3----------------0----------------|
Db|------------------------------------0-0-0-0-0-0-0------------------|

GUITAR (Lead):

eb|-------------------------------------------------------------------|
Bb|-------------------------------------------------------------------|
Gb|--7-7-7-7-7-7-7-7--7-7-7-7-7-7-7-7--7-7-7-7-7-7-7-5----------------|
Db|-------------------------------------------------------------------|
Ab|-------------------------------------------------------------------|
Db|-------------------------------------------------------------------|

GUITAR (Vocals):

eb|-----------------------------------------------------------------------8-----|
Bb|---------8-/-10-8-----------------------------8-/-10-8-------------------10--|
Gb|---7-7-7----------10-9-9-9-10-9-7----7--7-7-7----------10-9-9-9-9-9-10-------|
Db|----------------------------------10-----------------------------------------|
Ab|-----------------------------------------------------------------------------|
Db|-----------------------------------------------------------------------------|

GUITAR (Rhythm):

eb|-----------------------------------------------------------------------|
Bb|-----------------------------------------------------------------------|
Gb|--3--3-3-3-3-3-3-3--5-5-5-5-5-5-5-5-------------------2-2-2-2-2-2-2-2--|
Db|--3--3-3-3-3-3-3-3--5-5-5-5-5-5-5-5--0-0-0-0-0-0-0-0--2-2-2-2-2-2-2-2--|
Ab|--1--1-1-1-1-1-1-1--3-3-3-3-3-3-3-3--0-0-0-0-0-0-0-0--0-0-0-0-0-0-0-0--|
Db|-------------------------------------0-0-0-0-0-0-0-0-------------------|

GUITAR (Vocals):

eb|---10-10-10-8--------------------------------------------------------|
Bb|--------------10-8----8----8-10------------------------8--10--10/11--|
Gb|-------------------10---10------10-7--7--9--10--7--10----------------|
Db|---------------------------------------------------------------------|
Ab|---------------------------------------------------------------------|
Db|---------------------------------------------------------------------|

GUITAR (Rhythm):

eb|----------------------------------------------------------------------|
Bb|----------------------------------------------------------------------|
Gb|------------------------------------3-3-3-3-3-3-3-3--5-5-5-5-5-5-5-5--|
Db|--5-5-5-5-5-5-5-5--5-5-5-5-5-5-5-5--3-3-3-3-3-3-3-3--5-5-5-5-5-5-5-5--|
Ab|--5-5-5-5-5-5-5-5--5-5-5-5-5-5-5-5--1-1-1-1-1-1-1-1--3-3-3-3-3-3-3-3--|
Db|--5-5-5-5-5-5-5-5--5-5-5-5-5-5-5-5------------------------------------|

 


Pre-Chorus/Pre-Estribillo:

GUITAR (Vocals):

eb|----------------------------------------------------------|
Bb|--10----8----6/8--------------------------10-11-13-11/13--|
Gb|-------------------10-------------------------------------|
Db|------------------------8-/-10----------------------------|
Ab|----------------------------------------------------------|
Db|----------------------------------------------------------|

GUITAR (Rhythm):

eb|--------------------------------------------------------------------------|
Bb|--------------------------------------------------------------------------|
Gb|--(3)-x-x-x-x-x-x-x--x-x-x-x-x-x-x-x--------------------------------------|
Db|--(3)-x-x-x-x-x-x-x--x-x-x-x-x-x-x-x--(3)-x-x-x-x-x-x-x--x-x-x-x-x-x-x-x--|
Ab|--(1)-x-x-x-x-x-x-x--x-x-x-x-x-x-x-x--(3)-x-x-x-x-x-x-x--x-x-x-x-x-x-x-x--|
Db|--------------------------------------(3)-x-x-x-x-x-x-x--x-x-x-x-x-x-x-x--|

GUITAR (Vocals):

eb|------------------------------------------------------------------------|
Bb|----11-10h11---10-------------------------------------------------------|
Gb|------------------12/14---12-10h12---10-9/10--------9/10--9--10--10/12--|
Db|------------------------------------------------------------------------|
Ab|------------------------------------------------------------------------|
Db|------------------------------------------------------------------------|

GUITAR (Rhythm):

eb|----------------------------------------------------------------------------|
Bb|----------------------------------------------------------------------------|
Gb|--(5)-x-x-x-x-x-x-x--(6)-x-x-x-x-x-x-x--(7)-x-x-x-x-x-x-x--7-7-7-7-7-7-7-7--|
Db|--(5)-x-x-x-x-x-x-x--(5)-x-x-x-x-x-x-x--(7)-x-x-x-x-x-x-x--7-7-7-7-7-7-7-7--|
Ab|--(3)-x-x-x-x-x-x-x--(4)-x-x-x-x-x-x-x--(5)-x-x-x-x-x-x-x--5-5-5-5-5-5-5-5--|
Db|----------------------------------------------------------------------------|

GUITAR (Vocals):

eb|-----------------------------------------------------------|
Bb|--------------11/13--11------------------------------------|
Gb|--13----10---------------13--10-/-12------8--8------8--10--|
Db|------------------------------------------------10---------|
Ab|-----------------------------------------------------------|
Db|-----------------------------------------------------------|

GUITAR (Rhythm):

eb|--------------------------------------------------------------|
Bb|--------------------------------------------------------------|
Gb|--6--6-6--6-6-6--6--6-6--6-6-6--8--8-8--8-8-8--8--8-8--8-8-8--|
Db|--6--6-6--6-6-6--6--6-6--6-6-6--8--8-8--8-8-8--8--8-8--8-8-8--|
Ab|--4--4-4--4-4-4--4--4-4--4-4-4--6--6-6--6-6-6--6--6-6--6-6-6--|
Db|--------------------------------------------------------------|

GUITAR (Vocals):

eb|---------------------------------------------|
Bb|---------------------------11/13--11h13--11--|
Gb|--10/13----10--10--10--10--------------------|
Db|---------------------------------------------|
Ab|---------------------------------------------|
Db|---------------------------------------------|

GUITAR (Rhythm):

eb|-------------------------------------------------------------------------|
Bb|-------------------------------------------------------------------------|
Gb|--6-x-x-6-x-x-6-x--6-x-x-6-x-x-6-x--8-x-x-8-x-x-8-8------10----10/12-10--|
Db|--6-x-x-6-x-x-6-x--6-x-x-6-x-x-6-x--8-x-x-8-x-x-8-8---10----10-----------|
Ab|--4-x-x-4-x-x-4-x--4-x-x-4-x-x-4-x--6-x-x-6-x-x-6-6----------------------|
Db|-------------------------------------------------------------------------|

GUITAR (Lead):

eb|----------------------------13----13/15-13--|
Bb|-------------------------13----13-----------|
Gb|--------------------------------------------|
Db|--------------------------------------------|
Ab|--------------------------------------------|
Db|--------------------------------------------|

 


Chorus/Estribillo:

GUITAR (Vocals):

eb|-------------------------------------------------------------------------------------|
Bb|--13/15---13--13------13/15--13--------------------------------------------------13--|
Gb|------------------14------------14----12/14-12-14-12-14-12-10-----10--12--12/14------|
Db|---------------------------------------------------------------12--------------------|
Ab|-------------------------------------------------------------------------------------|
Db|-------------------------------------------------------------------------------------|

GUITAR (Rhythm):

eb|----------------------------------------------------------------|
Bb|----------------------------------------------------------------|
Gb|-------------------3--3-3--3-3-3-----------------7--7-7--7-7-7--|
Db|--0--0-0-0-0--0-0--3--3-3--3-3-3--3--3-3--3-3-3--7--7-7--7-7-7--|
Ab|--0--0-0-0-0--0-0--1--1-1--1-1-1--3--3-3--3-3-3--5--5-5--5-5-5--|
Db|--0--0-0-0-0--0-0-----------------3--3-3--3-3-3-----------------|

GUITAR (Vocals):

eb|---------------------------------10-12-12/13--12--10-----------------------------|
Bb|--13/15--13--13------13/15----13----------------------13--13---------------------|
Gb|----------------14--------------------------------------------12--14--14/15--14--|
Db|---------------------------------------------------------------------------------|
Ab|---------------------------------------------------------------------------------|
Db|---------------------------------------------------------------------------------|

GUITAR (Rhythm):

eb|-----------------------------------------------------------|
Bb|-----------------------------------------------------------|
Gb|-----------------3--3-3--3-3-3-----------------5--5--5--5--|
Db|--0--0-0--0-0-0--3--3-3--3-3-3--3--3-3-3-3-3-3-5--5--5--5--|
Ab|--0--0-0--0-0-0--1--1-1--1-1-1--3--3-3-3-3-3-3-3--3--3--3--|
Db|--0--0-0--0-0-0-----------------3--3-3-3-3-3-3-------------|

GUITAR (Vocals):

eb|-------------------------------10-12-12/13--12--10--------------------------------|
Bb|----------------------------10----------------------10----------------------------|
Gb|----12/14-12-10-12--12/14-------------------------------10/12--10-10-10-------10--|
Db|------------------------------------------------------------------------12-10-----|
Ab|----------------------------------------------------------------------------------|
Db|----------------------------------------------------------------------------------|

GUITAR (Rhythm):

eb|--------------------------------------|
Bb|--------------------------------------|
Gb|--7--------6--------5-----------------|
Db|--7--------5--------5--------5--------|
Ab|--5--------4--------3--------5--------|
Db|-----------------------------5--------|

GUITAR (Vocals):

eb|----------------------------------------------------------------------------------------|
Bb|------------------------------------------------------------------------13-15/18-15h17--|
Gb|--10/12--12--10-12--12-12-10-12-10-12/14----12/14--14--12-14--14--12-14-----------------|
Db|----------------------------------------------------------------------------------------|
Ab|----------------------------------------------------------------------------------------|
Db|----------------------------------------------------------------------------------------|

GUITAR (Rhythm):

eb|------------------------------------------------------------------|
Bb|------------------------------------------------------------------|
Gb|------------------------------------------------------------------|
Db|--5-x-x-5-x-x-5-x-x-5-x-x-5-x-5-x--7-x-x-7-x-x-7-x-x-7-x-x-7-x-x--|
Ab|--5-x-x-5-x-x-5-x-x-5-x-x-5-x-5-x--7-x-x-7-x-x-7-x-x-7-x-x-7-x-x--|
Db|--5-x-x-5-x-x-5-x-x-5-x-x-5-x-5-x--7-x-x-7-x-x-7-x-x-7-x-x-7-x-x--|

 


Outro:

GUITAR (Vocals):

eb|--------------------------------------------------------|
Bb|------------11/13---------------------11/13-------------|
Gb|--------------------12/14---------------------12/14\12--|
Db|--------------------------------------------------------|
Ab|--------------------------------------------------------|
Db|--------------------------------------------------------|

GUITAR (Rhythm):

eb|-------------------------------------------------------------|
Bb|-------------------------------------------------------------|
Gb|--3--3-3-3-3-3-3--5--5-5-5-5-5-----------------2--2-2-2-2-2--|
Db|--3--3-3-3-3-3-3--5--5-5-5-5-5-0--0-0-0-0-0-0--2--2-2-2-2-2--|
Ab|--1--1-1-1-1-1-1--3--3-3-3-3-3-0--0-0-0-0-0-0--0--0-0-0-0-0--|
Db|-------------------------------0--0-0-0-0-0-0----------------|

GUITAR (Lead):

eb|----------------------------------------------------------------------------|
Bb|----------------------------------------------------------10/11--10---------|
Gb|-------10--12--------10--12--12/14----------10--12-------------------12-10--|
Db|--10-----------10-10---------------10--10-----------10-10-------------------|
Ab|----------------------------------------------------------------------------|
Db|----------------------------------------------------------------------------|

GUITAR (Vocals):

eb|-------------------------------------|
Bb|-------------------------------------|
Gb|------------12/14--------------------|
Db|-------------------------------------|
Ab|-------------------------------------|
Db|-------------------------------------|

GUITAR (Rhythm):

eb|----------------------------------------------------------------|
Bb|----------------------------------------------------------------|
Gb|--3--3-3-3-3-3-3--5--5-5-5-5-5-----5--7--------5--7-------------|
Db|--3--3-3-3-3-3-3--5--5-5-5-5-5-0---5--7--(0)-x-5--7--(3)(5)(3)--|
Ab|--1--1-1-1-1-1-1--3--3-3-3-3-3-0---3--5--(0)-x-3--5--(3)(5)(3)--|
Db|-------------------------------0---------(0)-x-------(3)(5)(3)--|

GUITAR (Lead):

eb|------------------------------------------------------|
Bb|---------------------13--15---------13--15------------|
Gb|--------------------------------------------10-12-10--|
Db|----------------12-----------12-12--------------------|
Ab|------------------------------------------------------|
Db|------------------------------------------------------|

GUITAR (Rhythm):

eb|----------------------------|
Bb|----------------------------|
Gb|------5--7------------------|
Db|--0---5--7--(0)-x--------0--|
Ab|--0---3--5--(0)-x--------0--|
Db|--0---------(0)-x--------0--|

GUITAR (Lead):

eb|--------------------------------|
Bb|-------13--15---------------15--|
Gb|--------------------------------|
Db|--12-----------12-12--------12--|
Ab|--------------------------------|
Db|--------------------------------|


 

ADAMAS - Tron544
00:00 / 00:00

©2019 by Fefe - Tron544

Sigueme en:

  • YouTube - White Circle
  • Facebook - White Circle
  • Instagram - White Circle
  • Twitter - White Circle
This site was designed with the
.com
website builder. Create your website today.
Start Now