~ 99.9 ~

TABLATURAS ~ By Fefe - Tron544

 

Intro:

GUITAR (Rhythm):

eb|--------------------------------|
Bb|--------------------------------|
Gb|-----------3-3-3-2-#-#-#-#-#-#--|
Db|--2--------2-2-2-1-#-#-#-#-#-#--|
Ab|--2--------3-3-3-2-#-#-#-#-#-#--|
Eb|--0-----------------------------|

BASS:

     S P S   P  P   S   S S P   P    P S
Gb|-------------7h9------------------------|
Db|----------9------7h9-----10--7h9--7-----|
Ab|----7-5/7------------7--------------10--|
Eb|--0--------------------8----------------|

GUITAR (Rhythm):

eb|-----------------------------------------------------------------|
Bb|-----------------------------------------------------------------|
Gb|-------------------------------------------------3--3-#-2--2-2---|
Db|-------------------------------------------------2--2-#-1--1-1---|
Ab|----------------------------5-7-7----------------3--3-#-2--2-2---|
Eb|--0-0-3-0-3-5-0-3-0-0-3-5-0--------0-0-3-0-3-5-0-----------------|

BASS:

Gb|-----------------------------------------------------------------|
Db|-----------------------------------------------------------------|
Ab|----------------------------5-7-7----------------3--3-#-2--2-2---|
Eb|--0-0-3-0-3-5-0-3-0-0-3-5-0--------0-0-3-0-3-5-0-----------------|

 


Verse/Estrofa:

GUITAR (Vocals):

eb|---------|--------------------------------------------------------|
Bb|---------|--------------------------------------------------------|
Gb|---------|--------------------------------------------------------|
Db|--9-9-7--|--/-9-----9-9-7-h-9--9--9--9--9--7-/-9-----------9-9-7--|
Ab|---------|--------------------------------------------------------|
Eb|---------|--------------------------------------------------------|

BASS:

Gb|-------------------------------------------------------------------|
Db|-------------------------------------------------------5------4----|
Ab|----------------------------5-7-7----------------2-/-3---3-2----2--|
Eb|--0-0-3-0-3-5-0-3-0-0-3-5-0--------0-0-3-0-3-5-0-------------------|

GUITAR (Vocals):

eb|----------------------------------------------------|
Bb|----------------------------------------------------|
Gb|--------------7------------------------------9-9-7--|
Db|--/-9-----9-9----9--9--9--9--7-/-9------------------|
Ab|----------------------------------------------------|
Eb|----------------------------------------------------|

BASS:

Gb|-------------------------------------------------------------------|
Db|-------------------------------------------------------5------4----|
Ab|----------------------------5-7-7----------------2-/-3---3-2----2--|
Eb|--0-0-3-0-3-5-0-3-0-0-3-5-0--------0-0-3-0-3-5-0-------------------|

GUITAR (Vocals):

eb|--------------------------------------------------------|
Bb|--------------------------------------------------------|
Gb|--/-9-----9-9-7-h-9--9--9--9--9--7-/-9-----------9-9-7--|
Db|--------------------------------------------------------|
Ab|--------------------------------------------------------|
Eb|--------------------------------------------------------|

GUITAR (Rhythm):

eb|--------------------------------------------------------------------------------------------|
Bb|--------------------------------------------------------------------------------------------|
Gb|---------------------------------------------------------------------------------3-------2--|
Db|-------------------------------------------------------------------------------2---1---1----|
Ab|-----------------------------------------(5)(7)-x------------------------2-/-3-------2------|
Eb|--(0)-x-(3)(0)(3)(5)(0)(3)(0)-x-(3)(5)(0)----------(0)-x-(3)(0)(3)(5)(0)--------------------|

BASS:

Gb|-------------------------------------------------------------------|
Db|-------------------------------------------------------5------4----|
Ab|----------------------------5-7-7----------------2-/-3---3-2----2--|
Eb|--0-0-3-0-3-5-0-3-0-0-3-5-0--------0-0-3-0-3-5-0-------------------|

GUITAR (Vocals):

eb|--------------------------------------------------------|
Bb|--------------8---------------------------------12--12--|
Gb|--/-9-----9-9----9--9--9-7--------12----14---12---------|
Db|----------------------------14--------------------------|
Ab|--------------------------------------------------------|
Eb|--------------------------------------------------------|

GUITAR (Rhythm):

eb|--------------------------------------------------------------------------------------------|
Bb|--------------------------------------------------------------------------------------------|
Gb|---------------------------------------------------------------------------------3-------2--|
Db|-------------------------------------------------------------------------------2---1---1----|
Ab|-----------------------------------------(5)(7)-x------------------------2-/-3-------2------|
Eb|--(0)-x-(3)(0)(3)(5)(0)(3)(0)-x-(3)(5)(0)----------(0)-x-(3)(0)(3)(5)(0)--------------------|

BASS:

Gb|-------------------------------------------------------------------|
Db|-------------------------------------------------------5------4----|
Ab|----------------------------5-7-7----------------2-/-3---3-2----2--|
Eb|--0-0-3-0-3-5-0-3-0-0-3-5-0--------0-0-3-0-3-5-0-------------------|

 


Pre-Chorus/Pre-Estribillo:

GUITAR (Vocals):

eb|---------------------------------------------------------------|
Bb|--------------------------12--12---------------------------12--|
Gb|--14---12-14---12-14---12---------12-\-9-----------------------|
Db|-----------------------------------------------------12-14-----|
Ab|---------------------------------------------------------------|
Eb|---------------------------------------------------------------|

GUITAR (Rhythm):

eb|------------------------------------------------------|
Bb|------------------------------------------------------|
Gb|--2---------------------------------------------------|
Db|--2---------------------------------------------------|
Ab|--0---------------------------------------------------|
Eb|-----------------12-\--0-0-3-0-3-5-0-0-3-0-3-5-6-5-3--|

GUITAR (Lead):

eb|-------------------------------------------------------------------------------|
Bb|--12-------12-------12-------12------------------------------------------------|
Gb|-----12-------12-------12-------12----14p12------------------------------------|
Db|--------14-------14-------14-------14-------14------5---5-7-----5---5-7-8-7-5--|
Ab|------------------------------------------------7-7---7-----7-7---7------------|
Eb|-------------------------------------------------------------------------------|

BASS:

Gb|--------------------------------------------------------------|
Db|--------------------9-----------------------------------------|
Ab|---------------12-----10--------------------------------------|
Eb|--5-------/-12------------8-\--0-0-3-0-3-5-0-0-3-0-3-5-6-5-3--|

GUITAR (Vocals):

eb|---------------------------------------------------|
Bb|--------------------------12/15--12----------------|
Gb|--14---12-14---12-14---12--------------------------|
Db|---------------------------------------------------|
Ab|---------------------------------------------------|
Eb|---------------------------------------------------|

GUITAR (Rhythm):

eb|--------------------------------------------------------------|
Bb|--------------------------------------------------------------|
Gb|--2--------2------------#-#-3-3-#-#-3-3-3--#-#-3-3-#-#-3-3-3--|
Db|--2--------2------------#-#-2-2-#-#-2-2-2--#-#-2-2-#-#-2-2-2--|
Ab|--0--------0------------#-#-3-3-#-#-3-3-3--#-#-3-3-#-#-3-3-3--|
Eb|------------------12-\----------------------------------------|

GUITAR (Lead):

eb|----------------------------------------------------------------|
Bb|--12-------12-------12-------12-------------12------------------|
Gb|-----12-------12-------12-------12----14p12---------------------|
Db|--------14-------14-------14-------14---------------------------|
Ab|----------------------------------------------------------------|
Eb|----------------------------------------------------------------|

BASS:

Gb|--------------------------14------------------------------------|
Db|--------------------14/17----17-14-\----------------------------|
Ab|---------------12----------------------3-3--3-3-3---3-3--3-3-3--|
Eb|--5-------/-12--------------------------------------------------|

GUITAR (Vocals):

eb|----------------------------------------------------------|
Bb|-------------------------------12/13--12------------------|
Gb|----11--11-12--12/14--12-11-12----------------------------|
Db|----------------------------------------------------------|
Ab|----------------------------------------------------------|
Eb|----------------------------------------------------------|

GUITAR (Rhythm):

eb|--2--2-2--2-2-2--2-2-2-2-2-2-2-2-------------------------------------------|
Bb|--3--3-3--3-3-3--0-0-0-0-0-0-0-0-------------------------------------------|
Gb|--2--2-2--2-2-2--2-2-2-2-2-2-2-2--------------------------------3-------2--|
Db|--0--0-0--0-0-0--1-1-1-1-1-1-1-1------------------------------2---1---1----|
Ab|-----------------2-2-2-2-2-2-2-2------------------------2-/-3-------2------|
Eb|----------------------------------(0)-x-(3)(0)(3)(5)(0)--------------------|

BASS:

Gb|--------------------------------------------|
Db|--------------------------------------------|
Ab|--5--------2-2-2-2-2-2-2-2------------------|
Eb|--------------------------------------------|

 


Chorus/Estribillo:

GUITAR (Vocals):

eb|----------------|------------------------------------------------------------------------------------|
Bb|-----12-12--10--|--/-12------12-12--10-/-12------12-12--10-/-12-------------12------------12-12--10--|
Gb|----------------|-----------------------------------------------14-14-12-14-----14-12----------------|
Db|--14------------|---------14------------------14---------------------------------------14------------|
Ab|----------------|------------------------------------------------------------------------------------|
Eb|----------------|------------------------------------------------------------------------------------|

GUITAR (Rhythm):

eb|------------------------------------------------------------|
Bb|------------------------------------------------------------|
Gb|-------------------------------7--7-7--7-7-7-7--7-7--7-7-7--|
Db|--2--2-2--2-2-2-2--2-2--2-2-2--7--7-7--7-7-7-7--7-7--7-7-7--|
Ab|--2--2-2--2-2-2-2--2-2--2-2-2--5--5-5--5-5-5-5--5-5--5-5-5--|
Eb|--0--0-0--0-0-0-0--0-0--0-0-0-------------------------------|

GUITAR (Lead 1):

eb|--h10h12t19p10h12t19p10h12t19p10h12t19p10h12t19p10-h12t17p10h12t17p10h12t17p10h12t17p10h12t17p10h12--|
Bb|-----------------------------------------------------------------------------------------------------|
Gb|-----------------------------------------------------------------------------------------------------|
Db|-----------------------------------------------------------------------------------------------------|
Ab|-----------------------------------------------------------------------------------------------------|
Eb|-----------------------------------------------------------------------------------------------------|

GUITAR (Lead 2):

eb|------------------------------------------------------------------------------------|
Bb|------------------12--------12---------15---------12--------10--10-8--7--8-#-#-8-7--|
Gb|------------------------------------------------------------------------------------|
Db|--------9-0-7-/-9----9-/-12----12-/-14----14-\-12----12-\-7-------------------------|
Ab|--5-/-7-----------------------------------------------------------------------------|
Eb|------------------------------------------------------------------------------------|

BASS:

Gb|--------------------------------------------------------------------|
Db|--------------------------------------------------------------------|
Ab|-----------------------------------5-5-5-5-5-5-5-5-5-5-5-5-5-5-5-5--|
Eb|--0-0-0-0-0-0-0-0-0-0-0-0-0-0-0-0-----------------------------------|

GUITAR (Vocals):

eb|------------------------------------------------------------------------------------------|
Bb|--/12\10------12-12--10/12\10---------12--15/17--12--------------10/12\10------12-12--10--|
Gb|--------------------------------12-14---------------14-12-14-12---------------------------|
Db|-----------14---------------------------------------------------------------14------------|
Ab|------------------------------------------------------------------------------------------|
Eb|------------------------------------------------------------------------------------------|

GUITAR (Rhythm):

eb|-----------------------------------------------------------|
Bb|-----------------------------------------------------------|
Gb|------------------------------3--3-3--3-3-3-2--2-2--2-2-2--|
Db|--7--7-7--7-7-7-7--7-7--7-7-7-2--2-2--2-2-2-1--1-1--1-1-1--|
Ab|--7--7-7--7-7-7-7--7-7--7-7-7-3--3-3--3-3-3-2--2-2--2-2-2--|
Eb|--5--5-5--5-5-5-5--5-5--5-5-5------------------------------|

GUITAR (Lead 1):

eb|--t17p9h12t17p9h12t17p9h12t17p9h12t17p9h12t17-10h12t18p10h12t18p10------------------------|
Bb|-------------------------------------------------------------------t16p10h12t16p10h12t16--|
Gb|------------------------------------------------------------------------------------------|
Db|------------------------------------------------------------------------------------------|
Ab|------------------------------------------------------------------------------------------|
Eb|------------------------------------------------------------------------------------------|

GUITAR (Lead 2):

eb|------------------------------------------------------------12--------------------14---------|
Bb|---------------------------------------------------------11----11--------------12-----12-----|
Gb|--------9--------------------------12-12-12-12---------9----------9---------14-----------14--|
Db|--7-h-9---7-9-7-9-9-/-11--11-11-11--------------7-/-10--------------10-/-13------------------|
Ab|---------------------------------------------------------------------------------------------|
Eb|---------------------------------------------------------------------------------------------|

BASS:

Gb|-----------------------------------------------------------------14-----|
Db|-------------------------------------------------------9----/-14----14--|
Ab|-----------------------------------------------------9---9--------------|
Eb|--5-5-5-5-5-5-5-5-5-5-5-5-5-5-5-5--8-8-8-8-8-8-8-8-7--------------------|

GUITAR (Vocals):

eb|------------------------------------------------------------------------------------|
Bb|--/-12------12-12--10-/-12------12-12--10-/-12-------------12------------12-12--10--|
Gb|-----------------------------------------------14-14-12-14-----14-12----------------|
Db|---------14------------------14---------------------------------------14------------|
Ab|------------------------------------------------------------------------------------|
Eb|------------------------------------------------------------------------------------|

GUITAR (Rhythm):

eb|--------------------------------------------------------------------|
Bb|--------------------------------------------------------------------|
Gb|-----------------------------------7-7-7-7-7-7-7-7-7-7-7-7-7-7-7-7--|
Db|--2-2-2-2-2-2-2-2-2-2-2-2-2-2-2-2--7-7-7-7-7-7-7-7-7-7-7-7-7-7-7-7--|
Ab|--2-2-2-2-2-2-2-2-2-2-2-2-2-2-2-2--5-5-5-5-5-5-5-5-5-5-5-5-5-5-5-5--|
Eb|--0-0-0-0-0-0-0-0-0-0-0-0-0-0-0-0-----------------------------------|

GUITAR (Lead 1):

eb|--h10h12t19p10h12t19p10h12t19p10h12t19p10h12t19p10-h12t17p10h12t17p10h12t17p10h12t17p10h12t17p10h12--|
Bb|-----------------------------------------------------------------------------------------------------|
Gb|-----------------------------------------------------------------------------------------------------|
Db|-----------------------------------------------------------------------------------------------------|
Ab|-----------------------------------------------------------------------------------------------------|
Eb|-----------------------------------------------------------------------------------------------------|

GUITAR (Lead 2):

eb|------------------------------------------------------------------------------------|
Bb|------------------12--------12---------15---------12--------10--10-8--7--8-#-#-8-7--|
Gb|------------------------------------------------------------------------------------|
Db|--------9-0-7-/-9----9-/-12----12-/-14----14-\-12----12-\-7-------------------------|
Ab|--5-/-7-----------------------------------------------------------------------------|
Eb|------------------------------------------------------------------------------------|

BASS:

Gb|------------------------------------------------------7---7-7/9-7------|
Db|--12/14---------------------------------------------7---7---------7----|
Ab|--------------------------------------5-5-5-5-5-5-5-----------------5--|
Eb|---------0-0-0-0-0-0-0-0-0-0-0-0-0-0-----------------------------------|

GUITAR (Vocals):

eb|--------------------------------------------------------------------------------------------|
Bb|--/12\10------12-12--10/12\10---------12-10/12----12---------10/12--10/12-------------------|
Gb|--------------------------------12-14-----------------14--12------------------12----12------|
Db|-----------14--------------------------------------------------------------14----14-----14--|
Ab|--------------------------------------------------------------------------------------------|
Eb|--------------------------------------------------------------------------------------------|

GUITAR (Rhythm):

eb|--------------------------------------------------------------|
Bb|--------------------------------------------------------------|
Gb|-----------------------------------3-3-3-3-3-3-3-3-2-2-2-2----|
Db|--7-7-7-7-7-7-7-7-7-7-7-7-7-7-7-7--2-2-2-2-2-2-2-2-1-1-1-1----|
Ab|--7-7-7-7-7-7-7-7-7-7-7-7-7-7-7-7--3-3-3-3-3-3-3-3-2-2-2-2----|
Eb|--5-5-5-5-5-5-5-5-5-5-5-5-5-5-5-5-----------------------------|

GUITAR (Lead 1):

eb|--t17p9h12t17p9h12t17p9h12t17p9h12t17p9h12t17-10h12t18p10h12t18p10-----------------|
Bb|-------------------------------------------------------------------t16p10h12t16----|
Gb|-----------------------------------------------------------------------------------|
Db|-----------------------------------------------------------------------------------|
Ab|-----------------------------------------------------------------------------------|
Eb|-----------------------------------------------------------------------------------|

GUITAR (Lead 2):

eb|------------------------------------------------------------12--------------------14-----|
Bb|---------------------------------------------------------11----11--------------12--------|
Gb|--------9--------------------------12-12-12-12---------9----------9---------14-----------|
Db|--7-h-9---7-9-7-9-9-/-11--11-11-11--------------7-/-10--------------10-/-13--------------|
Ab|-----------------------------------------------------------------------------------------|
Eb|-----------------------------------------------------------------------------------------|

BASS:

Gb|-------------------------------12-11-------------------------------------|
Db|------------------7---7-7/9-11-------9-\----------------------------7----|
Ab|--0-0-0-0-0-0-0-7---7---------------------3-3-3-3-3-3-3-3-2-2-2-/-7------|
Eb|-------------------------------------------------------------------------|

 


Outro:

GUITAR (Rhythm):

eb|-----------------------------------------------------------------|
Bb|-----------------------------------------------------------------|
Gb|-------------------------------------------------3--3-#-2--2-2---|
Db|-------------------------------------------------2--2-#-1--1-1---|
Ab|----------------------------5-7-7----------------3--3-#-2--2-2---|
Eb|--0-0-3-0-3-5-0-3-0-0-3-5-0--------0-0-3-0-3-5-0-----------------|

BASS:

Gb|-----------------------------------------------------------------|
Db|-----------------------------------------------------------------|
Ab|----------------------------5-7-7----------------3--3-#-2--2-2---|
Eb|--0-0-3-0-3-5-0-3-0-0-3-5-0--------0-0-3-0-3-5-0-----------------|

GUITAR (Rhythm):

eb|----------------------------------------------------------------------------|
Bb|----------------------------------------------------------------------------|
Gb|-------------------------------------------------3--3-#-2--2-2--------------|
Db|-------------------------------------------------2--2-#-1--1-1---2----------|
Ab|----------------------------5-7-7----------------3--3-#-2--2-2---2----------|
Eb|--0-0-3-0-3-5-0-3-0-0-3-5-0--------0-0-3-0-3-5-0-----------------0----------|

BASS:

Gb|----------------------------------------------------------------------------|
Db|----------------------------------------------------------------------------|
Ab|----------------------------5-7-7----------------3--3-#-2--2-2--------------|
Eb|--0-0-3-0-3-5-0-3-0-0-3-5-0--------0-0-3-0-3-5-0-----------------0----------|

 

99.9 - Tron544
00:00 / 00:00

©2019 by Fefe - Tron544

Sigueme en:

  • YouTube - White Circle
  • Facebook - White Circle
  • Instagram - White Circle
  • Twitter - White Circle
This site was designed with the
.com
website builder. Create your website today.
Start Now